Song name
# A B C D E F G H I J K L M N O P Q R S T U V W X Y Z

Killswitch Engage - Untitled And Unloved tab

Song: Untitled And Unloved
Artist: Killswitch Engage
Album: Alive Or Just Breathing
Year: 2002
________________________________________________________________

(0.00) INTRO:

 Guitar #1:
|-0h1----------1----1----1----0h1----------------0---------0----|
|-----3--------3----3----3--------3------3--1---------1---------|
|-0h2---2------2----2----2----0h2---2----2-------0---------0----|
|---------0----0----0----0------------0-----3---------3---------|
|---------------------------------------------------------------|
|---------------------------------------------------------------|
|
|Guitar #2:
|---------------------------------------------------------------|
|---------------------------------------------------------------|
|---------------------------------------------------------------|
|-------------------0----0----------------------------8----8----|
|---------0----0----0----0------------0-----8----8----8----8----|
|---------0----0----0----0------------0-----8----8----8----8----|

x2
_________________________________________________________________

(0.24) VERSE #1:

Guitar #1:
|-0h1----------1----1----1----0h1----------------0---------0----|
|-----3--------3----3----3--------3------3--1---------1---------|
|-0h2---2------2----2----2----0h2---2----2-------0---------0----|
|---------0----0----0----0------------0-----3---------3---------|
|---------------------------------------------------------------|
|---------------------------------------------------------------|
|
|Guitar #2:
|---------------------------------------------------------------|
|-8-10------------------------8-10------------------------------|
|-----9-10------------------------9-10--------------------------|
|-------------------0----0---------------------8---8--8--8-8----|
|---------0----0----0----0------------0-----8----8----8----8----|
|---------0----0----0----0------------0-----8----8----8----8----|

x2
_________________________________________________________________

(0.49) CHORUS #1:

 Guitar #1:
|-1-|-1--1--1--1--1--1--1--1--1--1--1--1--1--1--1--1--1--1--1--1--3--3--3--
|---|----------------------------------------------------------------------
|-2-|-2--2--2--2--3--3--3--3--2--2--2--2--3--3--3--3--2--2--2--2--3--3--3--
|---|----------------------------------------------------------------------
|---|----------------------------------------------------------------------
|---|----------------------------------------------------------------------
|
|Guitar #2:
|---|----------------------------------------------------------------------
|---|----------------------------------------------------------------------
|---|----------------------------------------------------------------------
|---|----------------------------------------------------------------------
|---|----------------------------------------------------------------------
|-0-|-0--0--0--0--0--0--0--10-10-10-10-10-10-10-10-8--8--8--8--8--8--8--8--
|
|Guitar #3:
|-13|-13-13-13-13-15-15-15-15-13-13-13-13-17-17-17-17-13-13-13-13-15-15-15-
|-15|-15-15-15-15-17-17-17-17-15-15-15-15-18-18-18-18-15-15-15-15-17-17-17-
|---|----------------------------------------------------------------------
|---|----------------------------------------------------------------------
|---|----------------------------------------------------------------------
|---|---------------------------------------------------------------------- 
Finish with ending*, repeat riff and then finish with ending**

(0.56)*1st time around, play this where the above riff finishes off:

 Guitar #1:
|-3--0--0--0--0--0--0--0--|-0--|
|-------------------------|----|
|-3--2--2--2--2--3--3--3--|-3--|
|-------------------------|----|
|-------------------------|----|
|-------------------------|----|
|
|Guitar #2:
|-------------------------|----|
|-------------------------|----|
|-------------------------|----|
|-------------------------|----|
|-------------------------|----|
|-7--7--7--7--7--7--7--7--|-0--|
|
|Guitar #3:
|-15-12-12-12-12-12-12-12-|-12-|
|-17-14-14-14-14-14-14-14-|-14-|
|-------------------------|----|
|-------------------------|----|
|-------------------------|----|
|-------------------------|----|

(1.05)**2nd time around, play this:

 Guitar #1:
|-0-----------------------|
|-------------------------|
|-2-----------------------|
|-------------------------|
|-------------------------|
|-------------------------|
|
|Guitar #2:
|-------------------------|
|-------------------------|
|-------------------------|
|-------------------------|
|-7-----------------------|
|-7-----------------------|
|
|Guitar #3:
|-12----------------------|
|-14----------------------|
|-------------------------|
|-------------------------|
|-------------------------|
|-------------------------|

_________________________________________________________________

(1.07) VERSE #2:

Guitar #1:
Plays the same as VERSE #1

Guitar #2:
|-8-10--------------------------8-10------------------------------------|
|-8-10-8-10---------------------8-10-8-10--------------10----------10---|
|------9-10--------------------------9-10--------------10----------10---|
|---------------------0----0-------------------------8-x--8--8---8-8----|
|-----------0----0----0----0--------------0------8-----8-----8-----8----|
|-----------0----0----0----0--------------0------8-----8-----8-----8----|

x4

At 3rd time around (1.32), Guitar #3 comes in:
|-8-8-8-8-8-8-8-8-8-8-8-8-8-8-8-8---|
|-6-6-6-6-5-5-5-5-6-6-6-6-5-5-5-5---|
|-----------------------------------|
|-----------------------------------|
|-----------------------------------|
|-----------------------------------| (Repeat this as many times as needed)

_________________________________________________________________

(1.57) CHORUS #2:

Guitars #1, #2 & #3 play the same as they did in CHORUS #1
The chorus is repeated 6 times, all using ending* until the 6th time around, which uses ending***

At 3rd time around (2.15), Guitar #4 comes in:
|-------------------------------------------------------------------------|
|-13-11-10-------10-11-13-13-11-10-------10-11-13-13-12-10----------------|
|----------10----------------------10----------------------10-------------|
|-------------12----------------------12----------------------12(let ring)|
|-------------------------------------------------------------------------|
|-------------------------------------------------------------------------|

(2.48)***6th time around, play this:

 Guitars #1 & #3 play the same as they did in ending**
 Guitar #2:
|-------------------------|
|-------------------------|
|-------------------------|
|------7------7-----------|
|-7----7-----7------------|
|-7----7----7-------------|
_________________________________________________________________

(2.53) OUTRO:

 Guitar #1:
|-0h1------------1----1----1----|
|------3---------3----3----3----|
|-0h2----2-------2----2----2----|
|-----------0----0----0----0----|
|-------------------------------|
|-------------------------------|
|
|Guitar #2:
|-8-10--------------------------|
|-8-10-8-10---------------------|
|------9-10---------------------|
|---------------------0----0----|
|-----------0----0----0----0----|
|-----------0----0----0----0----|

x3

(w/ ritardo)
 
Guitar #1:
|-0h1---------------------------|
|------3------------------------|
|-0h2----2----------------------|
|-----------0-------------------|
|-------------------------------|
|-------------------------------| let ring
|
|Guitar #2:
|-8-10--------------------------|
|-8-10-8-10---------------------|
|------9-10---------------------|
|-----------0-------------------|
|-----------0-------------------|
|-----------0-------------------| let ring

_________________________________________________________________

END
Tap to rate this tab
 
# A B C D E F G H I J K L M N O P Q R S T U V W X Y Z