Song name
# A B C D E F G H I J K L M N O P Q R S T U V W X Y Z

Killswitch Engage - Inhale tab

Killswitch Engage
Inhale
Tuning - CGCFAD

* = hold note a bit longer

riff 1
(guitar 1 play this throughout whole song)

d|-3-3-3-3-3-3-3---3-3-3-3-3-3-3---3-3-3-3-3-3-3---2-2-2-2-2-2-2-2-|
a|-3-3-3-3-3-3-3---3-3-3-3-3-3-3---3-3-3-3-3-3-3---3-3-3-3-3-3-3-3-|
f|-0-0-0-0-0-0-0---0-0-0-0-0-0-0---2-2-2-2-2-2-2---2-2-2-2-2-2-2-2-|
c|-2-2-2-2-2-2-2---0-0-0-0-0-0-0---0-0-0-0-0-0-0---0-0-0-0-0-0-0-0-|
g|-3-3-3-3-3-3-3---2-2-2-2-2-2-2-----------------------------------|
c|-----------------3-3-3-3-3-3-3-----------------------------------|

riff 2
(guitar 2 play this after riff1 has been played twice)
                            *                                 *          
d|-3-----3-----5------3-----3--------3-----3-----7------5-----3-------|
a|---3-----3-----3------3-------3------3-----3-----3------3------3----|
f|-----0-----0------0-----0-------0------0-----0------0-----0------0--|
c|--------------------------------------------------------------------|
g|--------------------------------------------------------------------|
c|--------------------------------------------------------------------|
 
d|-3-----3-----5------3-----7--5--3----2-----3-2---------|
a|---3-----3-----3------3--------------3------------3----|
f|-----0-----0------0-----0------------0------------2----|
c|--------------------------------------------------0----|
g|-------------------------------------------------------|
c|-------------------------------------------------------|

riff 3
(guitar 2 plays this after playing riff 2 twice)

d|---------------------------------------|
a|-8-7-----8-7-----8-7---8-7-------------|
f|-----7~------7~------7~----7~----------|
c|---------------------------------------|
g|---------------------------------------|
g|---------------------------------------|

finnish on
d|-3-|
a|-3-|
f|-0-|
c|-2-|
g|-3-|
g|---|
 Tabbed by jesse
Tap to rate this tab
# A B C D E F G H I J K L M N O P Q R S T U V W X Y Z