Song name
# A B C D E F G H I J K L M N O P Q R S T U V W X Y Z

Killswitch Engage - Never Again tab

Tabber: Eric Kisch
 Email: kisch.eric@gmail.com

                               h= hammer on  p= pulloff /= slide
                               ~= vibrato


   It might not be 100% correct so leave comments and corrections.
Also check out my other killswitch engage tabs. Thanx


D[--------------------------------------------------------------------]
A[--------------------------------------------------------------------]
F[-7-7-7-7-7-7-7-7-7-7-7-7-7-7-7--5/7-7-7-7-7-7-7-7-7-7-7-7--9-9-9-9--]
C[--------------------------------------------------------------------]
G[-5-5-5-5-5-5-5-5-5-5-5-5-5-5-5--3/5-5-5-5-5-5-5-5-5-5-5-5--7-7-7-7--]
C[--------------------------------------------------------------------]

D[----------------------------------------------------------------------]
A[----------------------------------------------------------------------]
F[-10-10-10-10-10-10-10-10-10-10-10-10-10-10-10-10-10-10-10-10-10-10-10-]
C[----------------------------------------------------------------------]
G[-8--8--8--8--8--8--8--8--8--8--8--8--8--8--8--8--8--8--8--8--8--8--8--]
C[----------------------------------------------------------------------]


D[----------------------------------------------------------------------]
A[----------------------------------------------------------------------]
F[-10-10-10-10-10-10-10-10-10-10-10-10-10-10-10-10-10-10-10-10-10-10----]
C[----------------------------------------------------------------------]
G[-8--8--8--8--8--8--8--8--8--8--8--8--8--8--8--8--8--8--8--8--8--8-----]
C[----------------------------------------------------------------------]

D[-----------------]----------------------------------------------------]
A[-----------------]--------------------------(4x)----------------------]
F[-----------------]----------------------------------------------------]
C[-----------------]-----------------------------3-3-3-3-3-3-3-3--------]
G[-000-000-000-000-]-0-0--0-0--0-0--0-0--0-0--0--1-1-1-1-1-1-1-1--------]
C[-000-000-000-000-]-0-0--0-0--0-0--0-0--0-0--0-------------------------]

D[----------------------------------------------------------------------]
A[---------------------------------------(2x)---------------------------]
F[----------------------------------------------------------------------]
C[-0h2p0h2h3p0--0h2p0h2h3p0--02hp0h2h3p0--0h2p0-0-5h7p5p0-3h5p3p0-0-----]
G[----------------------------------------------------------------------]
C[----------------------------------------------------------------------]

D[--------------------------------------------------------------------------------|
A[--------------------------------------------------------------------------------|
F[--------------------------------------------------------(2x)--------------------|
C[--------------------------------------------------------------------------------|
G[--------------------------------------------------------------------------------|
C[-0h10p0h10h12p0--0h10p0h10h12p0--0h10p0h10h12p0--0h10p0-14h15p14p0-12h14p12p0-0-|

D[----------------------------------------------------------------------]
A[---------------------------------------(2x)---------------------------]
F[----------------------------------------------------------------------]
C[-0h2p0h2h3p0--0h2p0h2h3p0--02hp0h2h3p0--0h2p0-0-5h7p5p0-3h5p3p0-0-----]
G[----------------------------------------------------------------------]
C[----------------------------------------------------------------------]

D[--------------------------------------------------------------------------------|
A[--------------------------------------------------------------------------------|
F[--------------------------------------------------------(2x)--------------------|
C[--------------------------------------------------------------------------------|
G[--------------------------------------------------------------------------------|
C[-0h10p0h10h12p0--0h10p0h10h12p0--0h10p0h10h12p0--0h10p0-14h15p14p0-12h14p12p0-0-|


D[-----------------------------------------------------]
A[-------------------------------------------(4x)------]
F[-----------------------------------------------------]
C[------------------------------3-3-3-3-3-3-3-3--------]
G[--0-0--0-0--0-0--0-0--0-0--0--1-1-1-1-1-1-1-1--------]
C[--0-0--0-0--0-0--0-0--0-0--0-------------------------]


D[----------------------------------------------------------------------]
A[---------------------------------------(2x)---------------------------]
F[----------------------------------------------------------------------]
C[-0h2p0h2h3p0--0h2p0h2h3p0--02hp0h2h3p0--0h2p0-0-5h7p5p0-3h5p3p0-0-----]
G[----------------------------------------------------------------------]
C[----------------------------------------------------------------------]

D[--------------------------------------------------------------------------------|
A[--------------------------------------------------------------------------------|
F[--------------------------------------------------------(2x)--------------------|
C[--------------------------------------------------------------------------------|
G[--------------------------------------------------------------------------------|
C[-0h10p0h10h12p0--0h10p0h10h12p0--0h10p0h10h12p0--0h10p0-14h15p14p0-12h14p12p0-0-|

D[----------------------------------------------------------------------]
A[---------------------------------------(2x)---------------------------]
F[----------------------------------------------------------------------]
C[-0h2p0h2h3p0--0h2p0h2h3p0--02hp0h2h3p0--0h2p0-0-5h7p5p0-3h5p3p0-0-----]
G[----------------------------------------------------------------------]
C[----------------------------------------------------------------------]

D[--------------------------------------------------------------------------------|
A[--------------------------------------------------------------------------------|
F[--------------------------------------------------------(2x)--------------------|
C[--------------------------------------------------------------------------------|
G[--------------------------------------------------------------------------------|
C[-0h10p0h10h12p0--0h10p0h10h12p0--0h10p0h10h12p0--0h10p0-14h15p14p0-12h14p12p0-0-|

D[------]
A[------]
F[------]
C[-0----]
G[-0----]
C[-0----]

D[------------------------------------------]
A[-----------------------(2x)---------------]
F[------------------------------------------]
C[-7------7------7-----8------8-7----8-7-10-]
G[-5-0-0--5-0-0--5-0-0-6-0-0------5---------]
C[---0-0----0-0----0-0---0-0----------------]

D[------------------------------------------------------------]
A[------------------------------------------------------------]
F[------------------------------------------------------------]
C[-7------10--15--12--10--5--5/7~~--10--15--12--10--5--5/7~~--]
G[------------------------------------------------------------]
C[------------------------------------------------------------]

                 SOLO

D[-------------------------------------------17---------]
A[---------8--6---5---3---------------/18-17-----15-----]
F[-7--7---------------------5-2-0-2-----------------14--]
C[-----------0---0---0--0-------------------------------]
G[------------------------------------------------------]
C[------------------------------------------------------]

D[-15-17p12h13p12-----12-15h17p12h13p12-----12-15h17p12h13p12-----12-]
A[-----------------14--------------------14--------------------14----]
F[-------------------------------------------------------------------]
C[-------------------------------------------------------------------]
G[-------------------------------------------------------------------]
C[-------------------------------------------------------------------]

D[-15-17p12h13p12----12-17p15p12-17p15p12-17p15p12-17/20-22-22-]
A[-----------------14------------------------------------------]
F[-------------------------------------------------------------]
C[-------------------------------------------------------------]
G[-------------------------------------------------------------]
C[-------------------------------------------------------------]

D[-13h15h18p17p15h17p15p13----------------------------------------------------|
A[-------------------------18p17p15h17p15p13----------------------------------|
F[--------------------------------------------15p14p12h15p14p12---------------|
C[--------------------------------------------------------------15p14p12-12~~-|
G[----------------------------------------------------------------------------|
C[----------------------------------------------------------------------------|

D[----------------------------------------------------------------------]
A[---------------------------------------(4x)---------------------------]
F[----------------------------------------------------------------------]
C[-0h2p0h2h3p0--0h2p0h2h3p0--02hp0h2h3p0--0h2p0-0-5h7p5p0-3h5p3p0-0-----]
G[----------------------------------------------------------------------]
C[----------------------------------------------------------------------]

D[--------------------------------------------------------------------------------|
A[--------------------------------------------------------------------------------|
F[--------------------------------------------------------(2x)--------------------|
C[--------------------------------------------------------------------------------|
G[--------------------------------------------------------------------------------|
C[-0h10p0h10h12p0--0h10p0h10h12p0--0h10p0h10h12p0--0h10p0-14h15p14p0-12h14p12p0-0-|

D[----------------------------------------------------------------------]
A[---------------------------------------(2x)---------------------------]
F[----------------------------------------------------------------------]
C[-0h2p0h2h3p0--0h2p0h2h3p0--02hp0h2h3p0--0h2p0-0-5h7p5p0-3h5p3p0-0-----]
G[----------------------------------------------------------------------]
C[----------------------------------------------------------------------]

D[--------------------------------------------------------------------------------|
A[--------------------------------------------------------------------------------|
F[--------------------------------------------------------(2x)--------------------|
C[--------------------------------------------------------------------------------|
G[--------------------------------------------------------------------------------|
C[-0h10p0h10h12p0--0h10p0h10h12p0--0h10p0h10h12p0--0h10p0-14h15p14p0-12h14p12p0-0-|


D[----------------------------------------------------]
A[----------------------------------------------------]
F[----------------------------------------------------]
C[----------------------------------------------------]
G[-0-0--0-0--0-0--0-0--0-0--0-0--0-0-0--0-0-0--0-0-0--]
C[-0-0--0-0--0-0--0-0--0-0--0-0--0-0-0--0-0-0--0-0-0--]
Tap to rate this tab
 
# A B C D E F G H I J K L M N O P Q R S T U V W X Y Z