Song name
# A B C D E F G H I J K L M N O P Q R S T U V W X Y Z

Killswitch Engage - My Curse Acoustic tab

hey, this is my 1st KsE song tab. so go easy!
you can also play this is drop d if you want to, but its played in drop C.
rate and comment!

Tabber: TDG Tabs
Artist: Killswitch Engage
Album: As Daylight Dies


[intro gtr.1]
|------------------------------------------------------|
|--------10-----------10-------------6---------6-------|
|---10------8---10-------8-------5-----5---5-----5-----|
|-8----8------8----10-------0--8---8-----8---8---------|
|------------------------------------------------------|
|------------------------------------------------------|

|-----------------0~--------------------0~---|
|-------6-----------6---------6-----------6--|
|---5-----5---5-----------5-----5---5--------|
|-7---7-----7---7-------7---7-----7---7------|
|--------------------------------------------|
|--------------------------------------------|

[intro gtr.2]strum each chord
|--------------------0~-0-1----0~-0-1------|
|-10~-------6~-------3~--------3~----------|
|-10~-------8~-------2~--------2~----------|
|-8~--------5~-------0~--------0~----------|
|-8~--------5~-------0~--------0~----------|
|-8~--------5~-------0~--------0~----------|

repeat these as much as you want

[verse gtr.1]
|---------------------------------------------------------|
|---------------------------------------------------------|
|-----2-----2-----2------2-----2---2~---------------------|
|-0-0-----0-----0------0-----0----0-----------------------|
|-------3----------------------------------5--------------|
|------------5~-----3~-----0~---0~------/7---7-6-5-0-3-5--|

|---------------------------------------------------------|
|---------------------------------------------------------|
|-----2-----2-----2------2-----2---2~---------------------|
|-0-0-----0-----0------0-----0----0-----------------------|
|-------3----------------------------------3--------------|
|------------5~-----3~-----0~---0~------/5---5-4-3-0-3-5--|

[verse gtr.2]
|-0~---0~---------------------|
|-3~---3~---------------------|
|-2~---2~---------------------| (then gtr.2 does same as gtr.1)
|-0~---0~---------------------| 
|-0~---0~------3--------------|
|-0~---0~---/5---5-4-3-0-3-5--|

[pre-chorus gtr.1 and 2] part 1
|------------------------------------------------|
|------------------------------------------------|
|------------------------------------------------|
|-0-0--0-0--0-0--0-0-----------------------------|
|-0-0--0-0--0-0--0-0------0-0-0-0-------0-0-0-0--|
|-0-0--0-0--0-0--0-0--3p0-0-0-0-0--3p0--0-0-0-0--|
 |------------------|    |-------|     |-------|
     palm mute              pm             pm

[pre-chorus gtr.1 and 2] part 2
|----------------------------------------------------------------|
|----------------------------------------------------------------|
|----------------------------------------------------------------|
|-0-0--0-0--0-0--0-0---------------------------------------------|
|-0-0--0-0--0-0--0-0------0-0-0-0------0-0-0-0----5--------------|
|-0-0--0-0--0-0--0-0--3p0-0-0-0-0--3p0-0-0-0-0-/7---7-6-5-0-3-5--|
 |------------------|    |-------|    
     palm mute              pm            

repeat pre-chorus part 1 then...

[pre-chorus gtr.1 and 2] part 2
|----------------------------------------------------------------|
|----------------------------------------------------------------|
|----------------------------------------------------------------|
|-0-0--0-0--0-0--0-0---------------------------------------------|
|-0-0--0-0--0-0--0-0------0-0-0-0------0-0-0-0----5--------------|
|-0-0--0-0--0-0--0-0--3p0-0-0-0-0--3p0-0-0-0-0-/7---7-6-5-0-3-5--|
 |------------------|    |-------|            (-----------------)
     palm mute              pm                   repeat twice      

repeat intro gtr.1 and 2
repeat verse x2
repeat pre-chorus

[interlude gtr.1]
|---------------------------------------------|
|---------------------------------------------|
|-14/15~--10/12-12--14/15-15-15--14~--10~-9~--|
|-x--x----x--x--x---x--x--x--x---x----x---x---|
|-12/13~--8-/10-10--12/13-13-13--12~--8~--7~--|
|---------------------------------------------|

|-----------------------------------|
|-----------------------------------|
|-14-15--10-12-12--14-15-15-15-14~--|
|-x--x---x--x--x---x--x--x--x--x----|
|-12/13--8-/10-10--12/13-13-13-12~--|
|-----------------------------------|

[interlude gtr.2]
|-------------------------------------|
|-------------------------------------|
|-3-3-3-3-5-7-7-7-7-7--7-7-7-7-7-7----|
|-x-x-x-x-x-x-x-x-x-x--0-0-0-0-0-0----|
|-1-1-1-1-3-5-5-5-5-5--0-0-0-0-0-0----|
|-------------------------------------|

[break both guitars]
|---------------------------------------------------------------|
|---------------------------------------------------------------|
|---------------10-8---------------------------10---------------|
|--------------------8\7---------------------------8\7----------|
|-8-8-8-8-8-8-8----------8\5p0----5-5-5-5-5-5----------8\5p0----|
|-8-8-8-8-8-8-8-------------------5-5-5-5-5-5-------------------|
             
|---------------------------------------------------------------|
|---------------------------------------------------------------|
|---------------10-8---------------------------10------10-------|
|--------------------8\7---------------------------8-7-----8-7--|
|-0-0-0-0-0-0-----------8\5p0----0-0-0-0-0-0--------------------|
|-0-0-0-0-0-0--------------------0-0-0-0-0-0--------------------|
            
repeat intro but only the guitar 2 part

[outro gtr.1]
|----------------------------------------|
|----------------------------------------|
|-10-8----------------10------10---------|
|------8\7---------------8-7----8-7------|
|----------8\5p0-------------------------|
|----------------------------------------|
 (---------------) x6 (---------------) x4

[outro gtr.2] you can play the chords for chorus instead
|---------------------------------------------|
|---------------------------------------------|
|-14-12-----------------14-------14-----------|
|------12\10---------------12\10----12\10-----|
|------------12\8p0---------------------------|
|---------------------------------------------|
 (-----------------) x6 (----------------) x4


[ending riff]
|-----------------------------|
|-----------------------------|
|-10/12-14/15-14/12-10-9--7~--|
|-------------------------0~--|
|-------------------------0~--|
|-------------------------0~--|








Tap to rate this tab
 
# A B C D E F G H I J K L M N O P Q R S T U V W X Y Z