Song name
# A B C D E F G H I J K L M N O P Q R S T U V W X Y Z

Killswitch Engage - Numbered Days tab

                             Numbered Days                                   


                          Killswitch Engage


     PM PM    PM    PM    PM    PM                                              
     E  E  E  E  E  E  E  E  E  E  E   E     W                W                 
D||---------------------------------------|------------------------------------|
A||---------------------------------------|------------------------------------|
F||---------------------------------------|------------------------------------|
C||--------2-----1-----------1------------|------------------------------------|
G||--------2-----1-----2--0--1-----1p--0--|------------------------------------|
C||--0--0-----0-----0--2--0-----0--1p--0--|------------------------------------|


  PM PM    PM    PM    PM    PM         
  E  E  E  E  E  E  E  E  E  E  E   E   
---------------------------------------|
---------------------------------------|
---------------------------------------|
--------2-----1-----------1------------|
--------2-----1-----2--0--1-----1p--0--|
--0--0-----0-----0--2--0-----0--1p--0--|


           PM PM PM PM          PM PM PM PM                
  H        E  E  E  E  H        E  E  E  E      H          
--------------------------------------------|-------------|
--------------------------------------------|-------------|
--------------------------------------------|-------------|
--------------------------------------------|-------------|
-----------0--0--1--0-----------0--0--1--0--|--12S--------|
-----------0--0--1--0-----------0--0--1--0--|--12S--------|


  PM PM                                                                    
  E  E  W                Q.     Q.     Q    W                H.            
-------------------------0------------------------------------------------|
--------------------------------3-----------------------------------------|
---------------------------------------2----------------------------------|
--------0-----------------------------------0----------------L------------|
--0-----0-----------------------------------------------------------------|
--0--0--0-----------------------------------------------------------------|


  PM PM                                                                      
  E  E  Q.     Q.     Q    Q.     Q.     Q    W                H.            
---------------------------3------------------------------------------------|
----------------------------------4-----------------------------------------|
-----------------------------------------5----------------------------------|
----------------------6-----------------------6----------------L------------|
---------------3------------------------------------------------------------|
--0--0--3-------------------------------------------------------------------|


  PM PM                                                                      
  E  E  Q.     Q.     Q    Q.     Q.     Q    W                H.            
---------------------------3------------------------------------------------|
----------------------------------3-----------------------------------------|
----------------------3------------------3----------------------------------|
---------------5------------------------------5----------------L------------|
--------3-------------------------------------------------------------------|
--0--0----------------------------------------------------------------------|


  PM PM                                    
  E  E  W                W                 
------------------------------------------|
------------------------------------------|
------------------------------------------|
--------0----------------L----------------|
--------0----------------L----------------|
--0--0--0----------------L----------------|


                                                                     PM PM  
  H.            T   T   T   T   T   T   T  T  T  T  T  T  T  T  T  T E  E   
---------------------------------------------------------------------------|
---------------------------------------------------------------------------|
---------------------------------------------------------------------------|
--L------------------------------------------------------------------------|
--L------------16S-15S-14S-13S-12S-11S-10S-9S-8S-7S-6S-5S-4S-3S-2S-1-------|
--L------------16S-15S-14S-13S-12S-11S-10S-9S-8S-7S-6S-5S-4S-3S-2S-1-0--0--|


     PM    PM    PM    PM           PM PM PM PM PM PM  
  E  E  E  E  E  E  E  E     E   E  E  E  E  E  E  E   
--------------------------|---------------------------|
--------------------------|---------------------------|
--------------------------|---------------------------|
--2-----1-----------1-----|---------------------------|
--2-----1-----2--0--1-----|--1p--0--------------------|
-----0-----0--2--0-----0--|--1p--0--0--0--0--0--0--0--|


         PM PM PM PM PM PM           PM PM PM PM PM PM  
  E   E  E  E  E  E  E  E     E   E  E  E  E  E  E  E   
---------------------------|---------------------------|
---------------------------|---------------------------|
---------------------------|---------------------------|
---------------------------|---------------------------|
--1p--0--------------------|--1p--0--------------------|
--1p--0--0--0--0--0--0--0--|--1p--0--0--0--0--0--0--0--|


     PM    PM    PM    PM           PM PM PM PM PM PM  
  E  E  E  E  E  E  E  E     E   E  E  E  E  E  E  E   
--------------------------|---------------------------|
--------------------------|---------------------------|
--------------------------|---------------------------|
--2-----1-----------1-----|---------------------------|
--2-----1-----2--0--1-----|--1p--0--------------------|
-----0-----0--2--0-----0--|--1p--0--0--0--0--0--0--0--|


         PM PM PM PM PM PM           PM PM PM PM PM PM  
  E   E  E  E  E  E  E  E     E   E  E  E  E  E  E  E   
---------------------------|---------------------------|
---------------------------|---------------------------|
---------------------------|---------------------------|
---------------------------|---------------------------|
--1p--0--------------------|--1p--0--------------------|
--1p--0--0--0--0--0--0--0--|--1p--0--0--0--0--0--0--0--|


     PM    PM    PM    PM           PM PM PM PM PM PM  
  E  E  E  E  E  E  E  E     E   E  E  E  E  E  E  E   
--------------------------|---------------------------|
--------------------------|---------------------------|
--------------------------|---------------------------|
--2-----1-----------1-----|---------------------------|
--2-----1-----2--0--1-----|--1p--0--------------------|
-----0-----0--2--0-----0--|--1p--0--0--0--0--0--0--0--|


         PM PM PM PM PM PM           PM PM PM PM PM PM  
  E   E  E  E  E  E  E  E     E   E  E  E  E  E  E  E   
---------------------------|---------------------------|
---------------------------|---------------------------|
---------------------------|---------------------------|
---------------------------|---------------------------|
--1p--0--------------------|--1p--0--------------------|
--1p--0--0--0--0--0--0--0--|--1p--0--0--0--0--0--0--0--|


     PM    PM    PM    PM           PM PM PM PM PM PM  
  E  E  E  E  E  E  E  E     E   E  E  E  E  E  E  E   
--------------------------|---------------------------|
--------------------------|---------------------------|
--------------------------|---------------------------|
--2-----1-----------1-----|---------------------------|
--2-----1-----2--0--1-----|--1p--0--------------------|
-----0-----0--2--0-----0--|--1p--0--0--0--0--0--0--0--|


         PM PM PM PM PM PM           PM PM              
  E   E  E  E  E  E  E  E     E   E  E  E    H          
---------------------------|---------------------------|
---------------------------|---------------------------|
---------------------------|---------------------------|
---------------------------|---------------------------|
--1p--0--------------------|--1p--0--------------------|
--1p--0--0--0--0--0--0--0--|--1p--0--0--0--<>7~--------|


  PM PM PM    PM PM    PM PM    PM PM    PM PM     
  E  E  E  E  E  E  E  E  E  E  E  E  E  E  E  E   
--------------------------------------------------|
--------------------------------------------------|
--------------------------------------------------|
--------------------------------------------------|
-----------5--------5--------3--------1-----------|
--0--0--0-----0--0-----0--0-----0--0-----0--0--1--|


  PM PM    PM PM    PM PM    PM PM       PM          
  E  E  E  E  E  E  E  E  E  E  E  E  E  E    Q      
----------------------------------------------------|
----------------------------------------------------|
----------------------------------------------------|
-----------------------------------3----------------|
-----------------1--------3-----------5-----<>5~----|
--0--0--3--0--0-----0--0-----0--0--------0----------|


  PM PM PM    PM PM    PM PM    PM PM    PM PM     
  E  E  E  E  E  E  E  E  E  E  E  E  E  E  E  E   
--------------------------------------------------|
--------------------------------------------------|
--------------------------------------------------|
--------------------------------------------------|
-----------5--------5--------3--------1-----------|
--0--0--0-----0--0-----0--0-----0--0-----0--0--1--|


  PM PM    PM PM    PM PM    PM PM       PM          
  E  E  E  E  E  E  E  E  E  E  E  E  E  E    Q      
----------------------------------------------------|
----------------------------------------------------|
----------------------------------------------------|
-----------------------------------3----------------|
-----------------1--------3-----------5-----<>5~----|
--0--0--3--0--0-----0--0-----0--0--------0----------|


  PM PM PM    PM PM    PM PM    PM PM    PM PM     
  E  E  E  E  E  E  E  E  E  E  E  E  E  E  E  E   
--------------------------------------------------|
--------------------------------------------------|
--------------------------------------------------|
--------------------------------------------------|
-----------5--------5--------3--------1-----------|
--0--0--0-----0--0-----0--0-----0--0-----0--0--1--|


  PM PM    PM PM    PM PM    PM PM       PM          
  E  E  E  E  E  E  E  E  E  E  E  E  E  E    Q      
----------------------------------------------------|
----------------------------------------------------|
----------------------------------------------------|
-----------------------------------3----------------|
-----------------1--------3-----------5-----<>5~----|
--0--0--3--0--0-----0--0-----0--0--------0----------|


  PM PM PM    PM PM    PM PM    PM PM    PM PM     
  E  E  E  E  E  E  E  E  E  E  E  E  E  E  E  E   
--------------------------------------------------|
--------------------------------------------------|
--------------------------------------------------|
--------------------------------------------------|
-----------5--------5--------3--------1-----------|
--0--0--0-----0--0-----0--0-----0--0-----0--0--1--|


  PM PM    PM PM    PM PM    PM PM       PM               PM    PM    PM    PM  
  E  E  E  E  E  E  E  E  E  E  E  E  E  E    Q        E  E  E  E  E  E  E  E   
----------------------------------------------------|--------------------------|
----------------------------------------------------|--------------------------|
----------------------------------------------------|--------------------------|
-----------------------------------3----------------|--2-----1-----------1-----|
-----------------1--------3-----------5-----<>5~----|--2-----1-----2--0--1-----|
--0--0--3--0--0-----0--0-----0--0--------0----------|-----0-----0--2--0-----0--|


                  PM PM                    PM PM                    PM PM  
  E   E  H        E  E     E   E  H        E  E     E   E  H        E  E   
------------------------|------------------------|------------------------|
------------------------|------------------------|------------------------|
------------------------|------------------------|------------------------|
------------------------|------------------------|------------------------|
--1p--0-----------------|--1p--0-----------------|--1p--0-----------------|
--1p--0-----------0--0--|--1p--0-----------0--0--|--1p--0-----------0--0--|


     PM    PM    PM    PM                    PM PM                    PM PM  
  E  E  E  E  E  E  E  E     E   E  H        E  E     E   E  H        E  E   
--------------------------|------------------------|------------------------|
--------------------------|------------------------|------------------------|
--------------------------|------------------------|------------------------|
--2-----1-----------1-----|------------------------|------------------------|
--2-----1-----2--0--1-----|--1p--0-----------------|--1p--0-----------------|
-----0-----0--2--0-----0--|--1p--0-----------0--0--|--1p--0-----------0--0--|


                  PM PM       PM    PM    PM    PM                    PM PM  
  E   E  H        E  E     E  E  E  E  E  E  E  E     E   E  H        E  E   
------------------------|--------------------------|------------------------|
------------------------|--------------------------|------------------------|
------------------------|--------------------------|------------------------|
------------------------|--2-----1-----------1-----|------------------------|
--1p--0-----------------|--2-----1-----2--0--1-----|--1p--0-----------------|
--1p--0-----------0--0--|-----0-----0--2--0-----0--|--1p--0-----------0--0--|


                  PM PM                    PM PM       PM    PM    PM    PM  
  E   E  H        E  E     E   E  H        E  E     E  E  E  E  E  E  E  E   
------------------------|------------------------|--------------------------|
------------------------|------------------------|--------------------------|
------------------------|------------------------|--------------------------|
------------------------|------------------------|--2-----1-----------1-----|
--1p--0-----------------|--1p--0-----------------|--2-----1-----2--0--1-----|
--1p--0-----------0--0--|--1p--0-----------0--0--|-----0-----0--2--0-----0--|


                  PM PM                    PM PM           PM PM              
  E   E  H        E  E     E   E  H        E  E     E   E  E  E    H          
------------------------|------------------------|---------------------------|
------------------------|------------------------|---------------------------|
------------------------|------------------------|---------------------------|
------------------------|------------------------|---------------------------|
--1p--0-----------------|--1p--0-----------------|--1p--0--------------------|
--1p--0-----------0--0--|--1p--0-----------0--0--|--1p--0--0--0--<>7~--------|


  PM PM PM    PM PM    PM PM    PM PM    PM PM     
  E  E  E  E  E  E  E  E  E  E  E  E  E  E  E  E   
--------------------------------------------------|
--------------------------------------------------|
--------------------------------------------------|
--------------------------------------------------|
-----------5--------5--------3--------1-----------|
--0--0--0-----0--0-----0--0-----0--0-----0--0--1--|


  PM PM    PM PM    PM PM    PM PM       PM          
  E  E  E  E  E  E  E  E  E  E  E  E  E  E    Q      
----------------------------------------------------|
----------------------------------------------------|
----------------------------------------------------|
-----------------------------------3----------------|
-----------------1--------3-----------5-----<>5~----|
--0--0--3--0--0-----0--0-----0--0--------0----------|


  PM PM PM    PM PM    PM PM    PM PM    PM PM     
  E  E  E  E  E  E  E  E  E  E  E  E  E  E  E  E   
--------------------------------------------------|
--------------------------------------------------|
--------------------------------------------------|
--------------------------------------------------|
-----------5--------5--------3--------1-----------|
--0--0--0-----0--0-----0--0-----0--0-----0--0--1--|


  PM PM    PM PM    PM PM    PM PM       PM          
  E  E  E  E  E  E  E  E  E  E  E  E  E  E    Q      
----------------------------------------------------|
----------------------------------------------------|
----------------------------------------------------|
-----------------------------------3----------------|
-----------------1--------3-----------5-----<>5~----|
--0--0--3--0--0-----0--0-----0--0--------0----------|


  PM PM PM    PM PM    PM PM    PM PM    PM PM     
  E  E  E  E  E  E  E  E  E  E  E  E  E  E  E  E   
--------------------------------------------------|
--------------------------------------------------|
--------------------------------------------------|
--------------------------------------------------|
-----------5--------5--------3--------1-----------|
--0--0--0-----0--0-----0--0-----0--0-----0--0--1--|


  PM PM    PM PM    PM PM    PM PM       PM          
  E  E  E  E  E  E  E  E  E  E  E  E  E  E    Q      
----------------------------------------------------|
----------------------------------------------------|
----------------------------------------------------|
-----------------------------------3----------------|
-----------------1--------3-----------5-----<>5~----|
--0--0--3--0--0-----0--0-----0--0--------0----------|


  PM PM PM    PM PM    PM PM    PM PM    PM PM     
  E  E  E  E  E  E  E  E  E  E  E  E  E  E  E  E   
--------------------------------------------------|
--------------------------------------------------|
--------------------------------------------------|
--------------------------------------------------|
-----------5--------5--------3--------1-----------|
--0--0--0-----0--0-----0--0-----0--0-----0--0--1--|


  PM PM    PM PM    PM PM    PM PM       PM          
  E  E  E  E  E  E  E  E  E  E  E  E  E  E    Q      
----------------------------------------------------|
----------------------------------------------------|
----------------------------------------------------|
-----------------------------------3----------------|
-----------------1--------3-----------5-----<>5~----|
--0--0--3--0--0-----0--0-----0--0--------0----------|


  S S S S S S S S S S S S S S S S S S S S S S S S S S S S S S S S  
------------------------------------------------------------------|
------------------------------------------------------------------|
------------------------------------------2-2-2-2-0-0-0-0---------|
--0-0-0-0-3-3-3-3-2-2-2-2-3-3-3-3-0-0-0-0-----------------3-3-3-3-|
------------------------------------------------------------------|
------------------------------------------------------------------|


  S S S S S S S S S S S S S S S S S S S S S S S S S S S S S S S S  
------------------------------------------------------------------|
------------------------------------------------------------------|
----------------------------------5-5-5-5-3-3-3-3-2-2-2-2---------|
--0-0-0-0-3-3-3-3-2-2-2-2-3-3-3-3-------------------------3-3-3-3-|
------------------------------------------------------------------|
------------------------------------------------------------------|


  S S S S S S S S S S S S S S S S S S S S S S S S S S S S S S S S  
------------------------------------------------------------------|
------------------------------------------------------------------|
------------------------------------------2-2-2-2-0-0-0-0---------|
--0-0-0-0-3-3-3-3-2-2-2-2-3-3-3-3-0-0-0-0-----------------3-3-3-3-|
------------------------------------------------------------------|
------------------------------------------------------------------|


  S S S S S S S S S S S S S S S S S S S S S S S S S S S S   Q      
------------------------------------------------------------------|
------------------------------------------------------------------|
----------------------------------5-5-5-5-3-3-3-3-2-2-2-2---------|
--0-0-0-0-3-3-3-3-2-2-2-2-3-3-3-3-------------------------<>3~----|
------------------------------------------------------------------|
------------------------------------------------------------------|


  S S S S S S S S S S S S S S S S S S S S S S S S S S S S S S S S  
------------------------------------------------------------------|
------------------------------------------------------------------|
------------------------------------------2-2-2-2-0-0-0-0---------|
--0-0-0-0-3-3-3-3-2-2-2-2-3-3-3-3-0-0-0-0-----------------3-3-3-3-|
------------------------------------------------------------------|
------------------------------------------------------------------|


  S S S S S S S S S S S S S S S S S S S S S S S S S S S S S S S S  
------------------------------------------------------------------|
------------------------------------------------------------------|
----------------------------------5-5-5-5-3-3-3-3-2-2-2-2---------|
--0-0-0-0-3-3-3-3-2-2-2-2-3-3-3-3-------------------------3-3-3-3-|
------------------------------------------------------------------|
------------------------------------------------------------------|


  S S S S S S S S S S S S S S S S S S S S S S S S S S S S S S S S  
------------------------------------------------------------------|
------------------------------------------------------------------|
------------------------------------------2-2-2-2-0-0-0-0---------|
--0-0-0-0-3-3-3-3-2-2-2-2-3-3-3-3-0-0-0-0-----------------3-3-3-3-|
------------------------------------------------------------------|
------------------------------------------------------------------|


                                  PM         PM          
  S S S S S S S S S S S S S S S S E  Q    E  E  Q    E   
--------------------------------------------------------|
--------------------------------------------------------|
--------------------------------------------------------|
--0-0-0-0-3-3-3-3-2-2-2-2-3-3-3-3----3----3-----3----3--|
-------------------------------------1----1-----0----0--|
----------------------------------0----------0----------|


                                  PM PM  
  E  H        E  W                E  E   
----------------------------------------|
----------------------------------------|
----------------------------------------|
----------------------------------------|
--0--------------0----------------------|
--0--------------0----------------0--0--|


     PM PM    PM PM    PM PM    PM PM        PM PM  
  E  E  E  E  E  E  E  E  E  E  E  E  E   E  E  E   
---------------------------------------------------|
---------------------------------------------------|
---------------------------------------------------|
-----------7--------5--------3--------5h--7--------|
--3------------------------------------------------|
--3--3--3-----3--3-----3--3-----3--3---------3--3--|


     PM PM    PM PM    PM PM    PM PM        PM PM  
  E  E  E  E  E  E  E  E  E  E  E  E  E   E  E  E   
---------------------------------------------------|
---------------------------------------------------|
---------------------------------------------------|
-----------8--------7--------5--------7h--8--------|
--5------------------------------------------------|
--5--5--5-----5--5-----5--5-----5--5---------5--5--|


       PM     PM PM             PM     PM                 
  Q    E   E  E  E   E   E   E  E   E  E   E  E  E    E   
---------------------------------------------------------|
---------------------------------------------------------|
----------10--------10p--9----------------12-----9h--10--|
----------------------------10-----10--------------------|
--8-------------------------------------------8----------|
--8----8------8--8--------------8------8-----------------|


       PM                         PM PM  
  Q    Q    Q    W                E  E   
----------------------------------------|
----------------------------------------|
----------------------------------------|
----------------------------------------|
--0--------------0----------------------|
--0----0----0----0----------------0--0--|


     PM PM    PM PM    PM PM    PM PM        PM PM  
  E  E  E  E  E  E  E  E  E  E  E  E  E   E  E  E   
---------------------------------------------------|
---------------------------------------------------|
---------------------------------------------------|
-----------7--------5--------3--------5h--7--------|
--3------------------------------------------------|
--3--3--3-----3--3-----3--3-----3--3---------3--3--|


     PM PM    PM PM    PM PM    PM PM        PM PM  
  E  E  E  E  E  E  E  E  E  E  E  E  E   E  E  E   
---------------------------------------------------|
---------------------------------------------------|
---------------------------------------------------|
-----------8--------7--------5--------7h--8--------|
--5------------------------------------------------|
--5--5--5-----5--5-----5--5-----5--5---------5--5--|


  E  E   E   E   E   E  E  E   E   E   E   E  E  E   E   E   
------------------------------------------------------------|
------------------------------------------------------------|
------------------------------------------------------------|
--8--8--12--12--10--10--8--8--12--12--10--10--8--8--10--10--|
--8--8---8---8---8---8--8--8---8---8---8---8--8--8---8---8--|
--8--8---8---8---8---8--8--8---8---8---8---8--8--8---8---8--|


  PM PM PM                PM PM PM    PM PM PM     
  E  E  E  E  E  E  E  E  E  E  E  E  E  E  E  E   
--------------------------------------------------|
-----------5--6--5-----------------5-----------5--|
--------7-----------------------------------7-----|
-----7--------------7-----------7--------7--------|
--5--------------------5--4--5--------5-----------|
--------------------------------------------------|


              PM PM PM    PM  PM  PM                  
  E  E  E  E  E  E  E  E  E   E   E  E  E  E   E  E   
-----------------------------------------------------|
--6--5-----------------6-------------8--9--8---------|
---------------------------------10------------------|
--------7-----------7--------10---------------10-----|
-----------5--4--5--------8-----------------------8--|
-----------------------------------------------------|


  PM PM  PM    PM PM PM                PM         
  E  E   E  E  E  E  E  E  E  E  E  E  E  Q.      
-------------------------------------------------|
------------8-----------3--4--3------------------|
---------------------5---------------------------|
--------10--------5--------------5--------1------|
--7--8---------3--------------------3-----1------|
---------------------------------------0--1------|


  PM PM PM                PM PM PM    PM PM PM     
  E  E  E  E  E  E  E  E  E  E  E  E  E  E  E  E   
--------------------------------------------------|
-----------5--6--5-----------------5-----------5--|
--------7-----------------------------------7-----|
-----7--------------7-----------7--------7--------|
--5--------------------5--4--5--------5-----------|
--------------------------------------------------|


              PM PM PM    PM  PM  PM                  
  E  E  E  E  E  E  E  E  E   E   E  E  E  E   E  E   
-----------------------------------------------------|
--6--5-----------------6-------------8--9--8---------|
---------------------------------10------------------|
--------7-----------7--------10---------------10-----|
-----------5--4--5--------8-----------------------8--|
-----------------------------------------------------|


  PM PM  PM    PM PM PM                PM         
  E  E   E  E  E  E  E  E  E  E  E  E  E  Q.      
-------------------------------------------------|
------------8-----------3--4--3------------------|
---------------------5---------------------------|
--------10--------5--------------5--------1------|
--7--8---------3--------------------3-----1------|
---------------------------------------0--1------|


  PM PM PM                PM PM PM    PM PM PM     
  E  E  E  E  E  E  E  E  E  E  E  E  E  E  E  E   
--------------------------------------------------|
-----------5--6--5-----------------5-----------5--|
--------7-----------------------------------7-----|
-----7--------------7-----------7--------7--------|
--5--------------------5--4--5--------5-----------|
--------------------------------------------------|


              PM PM PM    PM  PM  PM                  
  E  E  E  E  E  E  E  E  E   E   E  E  E  E   E  E   
-----------------------------------------------------|
--6--5-----------------6-------------8--9--8---------|
---------------------------------10------------------|
--------7-----------7--------10---------------10-----|
-----------5--4--5--------8-----------------------8--|
-----------------------------------------------------|


  PM PM  PM    PM PM PM                PM         
  E  E   E  E  E  E  E  E  E  E  E  E  E  Q.      
-------------------------------------------------|
------------8-----------3--4--3------------------|
---------------------5---------------------------|
--------10--------5--------------5--------1------|
--7--8---------3--------------------3-----1------|
---------------------------------------0--1------|


       PM   PM                    PM PM  
  Q    Q    Q    W                E  E   
----------------------------------------|
----------------------------------------|
----------------------------------------|
----------------------------------------|
--0--------------0----------------------|
--0----0----0----0----------------0--0--|


     PM PM    PM PM    PM PM    PM PM        PM PM  
  E  E  E  E  E  E  E  E  E  E  E  E  E   E  E  E   
---------------------------------------------------|
---------------------------------------------------|
---------------------------------------------------|
-----------7--------5--------3--------5h--7--------|
--3------------------------------------------------|
--3--3--3-----3--3-----3--3-----3--3---------3--3--|


     PM PM    PM PM    PM PM    PM PM        PM PM  
  E  E  E  E  E  E  E  E  E  E  E  E  E   E  E  E   
---------------------------------------------------|
---------------------------------------------------|
---------------------------------------------------|
-----------8--------7--------5--------7h--8--------|
--5------------------------------------------------|
--5--5--5-----5--5-----5--5-----5--5---------5--5--|


       PM     PM PM             PM     PM                 
  Q    E   E  E  E   E   E   E  E   E  E   E  E  E    E   
---------------------------------------------------------|
---------------------------------------------------------|
----------10--------10p--9----------------12-----9h--10--|
----------------------------10-----10--------------------|
--8-------------------------------------------8----------|
--8----8------8--8--------------8------8-----------------|


       PM                         PM PM  
  Q    Q    Q    W                E  E   
----------------------------------------|
----------------------------------------|
----------------------------------------|
----------------------------------------|
--0--------------0----------------------|
--0----0----0----0----------------0--0--|


     PM PM    PM PM    PM PM    PM PM        PM PM  
  E  E  E  E  E  E  E  E  E  E  E  E  E   E  E  E   
---------------------------------------------------|
---------------------------------------------------|
---------------------------------------------------|
-----------7--------5--------3--------5h--7--------|
--3------------------------------------------------|
--3--3--3-----3--3-----3--3-----3--3---------3--3--|


     PM PM    PM PM    PM PM    PM PM        PM PM  
  E  E  E  E  E  E  E  E  E  E  E  E  E   E  E  E   
---------------------------------------------------|
---------------------------------------------------|
---------------------------------------------------|
-----------8--------7--------5--------7h--8--------|
--5------------------------------------------------|
--5--5--5-----5--5-----5--5-----5--5---------5--5--|


  E  E   E   E   E   E  E  E   E   E   E   E  E  E   E   E   
------------------------------------------------------------|
------------------------------------------------------------|
------------------------------------------------------------|
--8--8--12--12--10--10--8--8--12--12--10--10--8--8--10--10--|
--8--8---8---8---8---8--8--8---8---8---8---8--8--8---8---8--|
--8--8---8---8---8---8--8--8---8---8---8---8--8--8---8---8--|


                             PM PM PM PM PM PM           PM PM PM PM PM PM  
  W                   E   E  E  E  E  E  E  E     E   E  E  E  E  E  E  E   
-------------------|---------------------------|---------------------------|
-------------------|---------------------------|---------------------------|
-------------------|---------------------------|---------------------------|
-------------------|---------------------------|---------------------------|
-------------------|--1p--0--------------------|--1p--0--------------------|
-------------------|--1p--0--0--0--0--0--0--0--|--1p--0--0--0--0--0--0--0--|


         PM PM PM PM PM PM       PM    PM    PM    PM  
  E   E  E  E  E  E  E  E     E  E  E  E  E  E  E  E   
---------------------------|--------------------------|
---------------------------|--------------------------|
---------------------------|--------------------------|
---------------------------|--2-----1-----------1-----|
--1p--0--------------------|--2-----1-----2--0--1-----|
--1p--0--0--0--0--0--0--0--|-----0-----0--2--0-----0--|


         PM PM PM PM PM PM           PM PM PM PM PM PM  
  E   E  E  E  E  E  E  E     E   E  E  E  E  E  E  E   
---------------------------|---------------------------|
---------------------------|---------------------------|
---------------------------|---------------------------|
---------------------------|---------------------------|
--1p--0--------------------|--1p--0--------------------|
--1p--0--0--0--0--0--0--0--|--1p--0--0--0--0--0--0--0--|


         PM PM PM PM PM PM       PM    PM    PM    PM  
  E   E  E  E  E  E  E  E     E  E  E  E  E  E  E  E   
---------------------------|--------------------------|
---------------------------|--------------------------|
---------------------------|--------------------------|
---------------------------|--2-----1-----------1-----|
--1p--0--------------------|--2-----1-----2--0--1-----|
--1p--0--0--0--0--0--0--0--|-----0-----0--2--0-----0--|


         PM PM PM PM PM PM           PM PM PM PM PM PM  
  E   E  E  E  E  E  E  E     E   E  E  E  E  E  E  E   
---------------------------|---------------------------|
---------------------------|---------------------------|
---------------------------|---------------------------|
---------------------------|---------------------------|
--1p--0--------------------|--1p--0--------------------|
--1p--0--0--0--0--0--0--0--|--1p--0--0--0--0--0--0--0--|


         PM PM PM PM PM PM       PM    PM    PM    PM  
  E   E  E  E  E  E  E  E     E  E  E  E  E  E  E  E   
---------------------------|--------------------------|
---------------------------|--------------------------|
---------------------------|--------------------------|
---------------------------|--2-----1-----------1-----|
--1p--0--------------------|--2-----1-----2--0--1-----|
--1p--0--0--0--0--0--0--0--|-----0-----0--2--0-----0--|


         PM PM PM PM PM PM           PM PM PM PM PM PM                          
  E   E  E  E  E  E  E  E     E   E  E  E  E  E  E  E     E   E  H.             
---------------------------|---------------------------|----------------------||
---------------------------|---------------------------|----------------------||
---------------------------|---------------------------|----------------------||
---------------------------|---------------------------|----------------------||
--1p--0--------------------|--1p--0--------------------|--1p--0---------------||
--1p--0--0--0--0--0--0--0--|--1p--0--0--0--0--0--0--0--|--1p--0---------------||




Duration Legend
---------------
W - whole
H - half
Q - quarter
E - 8th
S - 16th
T - 32nd
X - 64th
. - note dotted
|-n-|  - n-tuplets


Tablature Legend
----------------
L - tied note
x - dead note
g - grace note
(n) - ghost note
> - accentuded note
NH - natural harmonic
AH - artificial harmonic
TH - tapped harmonic
SH - semi harmonic
PH - pitch harmonic
h - hammer on
p - pull off
b - bend
br - bendRelease
pb - preBend
pbr - preBendRelease
brb - bendReleaseBend
\n/ - tremolo bar dip
\n - tremolo bar dive
-/n - tremolo bar Release up
/n\ - tremolo bar inverted dip
/n - tremolo bar return
-\n - tremolo bar Release down
S - shift slide
s - legato slide
/ -  slide into from below or out of upwards
\ -  slide into from above or out of downwards
~ - vibrato
W - wide vibrato
tr - trill
TP - tremolo picking
T - tapping
S - slap
P - pop
< - fade in
^ - brush up
v - brush down
Tap to rate this tab
# A B C D E F G H I J K L M N O P Q R S T U V W X Y Z