Guitaretab - guitar tabs
Song name
# A B C D E F G H I J K L M N O P Q R S T U V W X Y Z

Killswitch Engage - Reject Yourself tab

Guitar 1 Intro

D|-------------------------------------------------------------------|
A|-------------------------------------------------------------------|
F|-------------------------------------------------------------------|
C|-----7-6-------------------7-6-------------------7-6---------------|
G|----------7h9p7--4h7p4----------7h9p7-4h7p4-----------7h9p7-4h7p4--|
C|-4-4--------------------4-4------------------0-0-------------------|


D|--------------------------------------------|
A|--------------------------------------------|
F|---------9------9---6h7p6-------------------|
C|-----6-7----6-7------------9-7-6------------|
G|----------------------------------7---------|
C|--------------------------------------------|

D|-------------------------------------------------------------------|
A|-------------------------------------------------------------------|
F|-------------------------------------------------------------------|
C|-----7-6-------------------7-6-------------------7-6---------------|
G|----------7h9p7--4h7p4----------7h9p7-4h7p4-----------7h9p7-4h7p4--|
C|-4-4--------------------4-4------------------0-0-------------------|

D|--------------------------------------------|
A|--------------------------------------------|
F|---------9------9---6h7p6-------------------|
C|-----6-7----6-7------------9-7-6------------|
G|----------------------------------7---------|
C|--------------------------------------------|

D|-------------------------------------------------------------------|
A|-------------------------------------------------------------------|
F|-------------------------------------------------------------------|
C|-----7-6-------------------7-6-------------------7-6---------------|
G|----------7h9p7--4h7p4----------7h9p7-4h7p4-----------7h9p7-4h7p4--|
C|-4-4--------------------4-4------------------0-0-------------------|
[ Tab from: http://www.guitaretab.com/k/killswitch-engage/79971.html ]
D|--------------------------------------------|
A|--------------------------------------------|
F|---------6h7p6------------------------------|
C|----------------9-7-6-----6h7p6-------------|
G|-----------------------7----------9-7-5-4---|
C|--------------------------------------------|



Guitar 2 Intro

D|-----------------------------------------|
A|-----------------------------------------|
F|-----------------------------------------|
C|--4-----------------0--------------------|
G|--4-----------------0--------------------|
C|--4---------4-6-----0-----12/------------|


D|----------------------------------------|
A|----------------------------------------|
F|----------------------------------------|
C|--4-4-4-----4-4-4-------0-0-0-----0-0-0-|
G|--4-4-4-----4-4-4-------0-0-0-----0-0-0-|
C|--4-4-4-----4-4-4---4-6-0-0-0-----0-0-0-|
    * *       * *         * *       * *

D|-------------------------------------------------------------|
A|-------------------------------------------------------------|
F|--------------------------------6h7p7------------------------|
C|--4-4-4-----4-4-4-------0-0-0---------9-7-6----6h7p6---------|
G|--4-4-4-----4-4-4-------0-0-0----------------7-------9-7-5-4-|
C|--4-4-4-----4-4-4---4-6-0-0-0--------------------------------|
    * *       * *         * *


Verse
Guitar 1 (0:22)

D|--------------------------------------------------|
A|--------------------------------------------------|
F|--------------------------------------------------|
C|------7-6-7----------------7-6-7------------7-6-4-|
G|----------------7-5-4-----------------------------|
C|--444-------444---------999-------11-11-11--------|

Guitar 2 (0:26)

D|-------------------|
A|-------------------|
F|-------------------|
C|--4----4----0--2---|
G|--4----4----0--2---|
C|--4----4----0--2---|
    *    *

Both Guitars (0:31)

D|--------------------------------------------------|
A|--------------------------------------------------|
F|--------------------------------------------------|
C|------7-6-7----------------7-6-7------------7-6-4-|
G|----------------7-5-4-----------------------------|
C|--444-------444---------999-------11-11-11--------|
    


Related for Reject Yourself tab
Advertisement will be closed in 10 seconds