Song name
# A B C D E F G H I J K L M N O P Q R S T U V W X Y Z

Killwhitneydead - I Didnt Know I Love You Came With A Knife In The Back tab

Killwhitneydead – I Didn’t’ Know I love you came with a knife in the back

Tabbed by: Nirvanaboy183

Drop C#

“Girls stink, they stink, they’re evil and they’re all bad, all of them, they’re 
like you.”

Intro x3
Gtr1
D#|-------------------------------------------------------------------------|
A#|-----------------------------------------------------1111111111111111111-|
F#|--98-------87--------------10101010101010101010991010--------------------|
C#|--98--76---87--65--------------------------------------------------------|
G#|--760076-00650065--000---------------------------------------------------|
C#|----0076-00--0065--000---------------------------------------------------|
Pm     ..   ..  ..    ...

Gtr2
D#|-------------------------------------------------------------------------|
A#|-------------------------------------------------------------------------|
F#|--98-------87------------------------------------------------------------|
C#|--98--76---87--65--------------------------------------------------------|
G#|--760076-00650065--000----555555555544551111111111111111-----------------|
C#|----0076-00--0065--000---------------------------------------------------|
Pm     ..   ..  ..    ...

Second part
Both guitars
D#|-------------------------------------------------------------------------|
A#|-------------------------------------------------------------------------|
F#|--98-------87-------76-------65------------------------------------------|
C#|--98--76---87--65---76--54---65--43--------------------------------------|
G#|--760076-00650065-00540054-00430043---000000-----------------------------|
C#|----0076-00--0065-00--0054-00--0043---000000-----------------------------|
Pm     ..   ..  ..   ..  ..   ..  ..     ......


“When she offers to help it’ll be for her own reasons, I’m not lying, take my pen, write 
down…do not trust her.”

Solo
Gtr1
D#|-------------------------------------------------------------------------|
A#|-------------------------------------------------------------------------|
F#|-----------------------55----55--55------------------------------7ph-----|
C#|-0033770033770077---33-----33---------5588--5588--88-003377003377--------|
G#|------------------11-----11----11---66----66----66-----------------------|
C#|-------------------------------------------------------------------------|

Gtr2
D#|-------------------------------------------------------------------------|
A#|-------------------------------------------------------------------------|
F#|-7777777733333333888888887777777777777777333333338888888877777777--------|
C#|-7777777733333333888888887777777777777777333333338888888877777777--------|
G#|-5555555511111111666666665555555555555555111111116666666655555555--------|
C#|-------------------------------------------------------------------------|

End x12
D#|-------------------------------------------------------------------------|
A#|-------------------------------------------------------------------------|
F#|-------------------------------------------------------------------------|
C#|-------------------------------------------------------------------------|
G#|--000-000000000-000------------------------------------------------------|
C#|--000-000000000-000------------------------------------------------------|
Tap to rate this tab
# A B C D E F G H I J K L M N O P Q R S T U V W X Y Z