Song name
# A B C D E F G H I J K L M N O P Q R S T U V W X Y Z

Kim Larsen - Kom Igen tab

----------------------------------------------
Tabbet af Daniel Olsen

Jeg ved ikke om den er hel rigtig da den er 
lyttet af fra en youtube video, men det er så
tæt på som jeg kan få den :)
----------------------------------------------

Capo 2

   C    G*  Fmaj7 Am  D   G
E|-x----3---X-----X---X---3--|
A|-3----2---3-----0---X---2--|
D|-2----0---3-----2---0---0--|
G|-0----0---2-----2---2---0--|
H|-1----0---1-----1---3---3--|
e|-0----x---0-----0---2---3--|


Intro / Mellemfløjt:

E |------------------------------------------------------|
A |------------------------------------------------------|
D |-5--------5---3-------3---2-------2---0-------0-------|
G |---0----0---0---0---0---0---0---0---0---0---0---0-----| X 2
H |------3-----------3-----------3-----------3-----------|
e |------------------------------------------------------|


Vers:

    C                       G*
E |-------------------------3-------3--------------------|
A |-3-------3---3-------3---------------3----------------|
D |---------------------------------------------0h2------|
G |---0---0---0---0---0---0---0---0---0---0---0-----0----| x 4
H |-----1-----------1-----------0-----------0------------|
e |------------------------------------------------------|
   Gå      din vej     du  ser vel jeg  græder...


Intro til omkvæd (Kom igen):

E |------------------------------------------------------|
A |------------------------------------------------------|
D |-5--------5---3-------3---2-------2---0-------0-------|
G |---0----0---0---0---0---0---0---0---0---0---0---0-----| X 2
H |------3-----------3-----------3-----------3-----------|
e |------------------------------------------------------|


Omkvæd:

    C           Fmaj7       G*
E |-------------------------3-------3--------------------|
A |-3-------3---3-------3---------------3-------2--------|
D |------------------------------------------------------|
G |---0---0---0---2---2---2---0---0---0---0---0---0------|
H |-----1-----------1-----------0-----------1------------|
e |------------------------------------------------------|
    Kom når syrenerne blomstrer min ven...

    Am          D           G           C
E |-------------------------3-------3--------------------|
A |-0-------0---------------------------3-------3---0h2--|
D |-------------0-------0--------------------------------| x 2 (hele verset)
G |---2---2---2---2---2---2---0---0---0---0---0---0----0-|
H |-----1-----------3-----------0-----------1------------|
e |------------------------------------------------------|
   Og når de går imod forår igen...


Intro til omkvæd (Kom igen):

E |------------------------------------------------------|
A |------------------------------------------------------|
D |-5--------5---3-------3---2-------2---0-------0-------|
G |---0----0---0---0---0---0---0---0---0---0---0---0-----| X 1
H |------3-----------3-----------3-----------3-----------|


Fløjtevers (med bagvedliggende melodi):

    C                       (G*)
E |-------------------------3-------3--------------------|
A |-3-------3---3-------3---------------3-------3--------|
D |------------------------------------------------------|
G |---0---0---0---0---0---0---0---0---0---0---0---0------|
H |-----1---1-------1---1---3---1---3-------0---1--------|
e |-0-----------0-----------------------0----------------|

    C                       (G*)
E |-------------------------3-------3--------------------|
A |-3-------3---3-------3---------------3-------3--------|
D |------------------------------------------------------|
G |---0---0---0---0---0---0---0---0---0---0---0---0------| x 2 (hele verset)
H |-----1---1-------1---1---0---1---3---1---1------------|
e |-0-----------0----------------------------------------|


Overgang:

    C
E |-------------|
A |-3-------3---|
D |-------------|
G |---0---0---0-|
H |-----1-------|
e |-------------|


Vers:

    C                       G*
E |-------------------------3-------3--------------------|
A |-3-------3---3-------3---------------3----------------|
D |---------------------------------------------0h2------|
G |---0---0---0---0---0---0---0---0---0---0---0-----0----| x 4
H |-----1-----------1-----------0-----------0------------|
e |------------------------------------------------------|
   Sad og sang sørgmodige sange...


Intro til omkvæd (Kom igen):

E |------------------------------------------------------|
A |------------------------------------------------------|
D |-5--------5---3-------3---2-------2---0-------0-------|
G |---0----0---0---0---0---0---0---0---0---0---0---0-----| X 2
H |------3-----------3-----------3-----------3-----------|
e |------------------------------------------------------|


Omkvæd:

    C           Fmaj7       G*
E |-------------------------3-------3--------------------|
A |-3-------3---3-------3---------------3-------2--------|
D |------------------------------------------------------|
G |---0---0---0---2---2---2---0---0---0---0---0---0------|
H |-----1-----------1-----------0-----------1------------|
e |------------------------------------------------------|
    Kom når syrenerne blomstrer min ven...

    Am          D           G           C
E |-------------------------3-------3--------------------|
A |-0-------0---------------------------3-------3---0h2--|
D |-------------0-------0--------------------------------| x 2 (hele verset)
G |---2---2---2---2---2---2---0---0---0---0---0---0----0-|
H |-----1-----------3-----------0-----------1------------|
e |------------------------------------------------------|
    Og når de går imod forår igen...


Intro til omkvæd (Kom igen):

E |------------------------------------------------------|
A |------------------------------------------------------|
D |-5--------5---3-------3---2-------2---0-------0-------|
G |---0----0---0---0---0---0---0---0---0---0---0---0-----| X 1
H |------3-----------3-----------3-----------3-----------|


Afslutning:

    C                       (G*)
E |-------------------------3-------3--------------------|
A |-3-------3---3-------3---------------3-------3--------|
D |------------------------------------------------------|
G |---0---0---0---0---0---0---0---0---0---0---0---0------|
H |-----1---1-------1---1---3---1---3-------0---1--------|
e |-0-----------0-----------------------0----------------|


    C                       (G*)        C
E |-------------------------3-------3---X-|
A |-3-------3---3-------3---------------3-|
D |-------------------------------------2-|
G |---0---0---0---0---0---0---0---0---0-0-|
H |-----1---1-------1---1---0---1---3---1-|
e |-0-----------0-----------------------X-|

Tekst:

Gå din vej, du ser vel jeg græder
Tåren triller ned af min kind
Nok er jeg en gammel plebejer
Men jeg har et følsomt sind 
Kom igen - Kom igen

Kom når syrenerne blomstrer min ven
Og når det går imod forår igen 
Kom når engang jeg er blevet mig selv 
Og hvis du skal den vej alligevel 
Kom igen - Kom igen 

Sad og sang sørgmodige sange
Til vinden kom og viskede dem ud 
Så dig gå forbi et par gange
Men hvor var du? Da lyset gik ud
Kom igen - kom igen 

Kom når syrenerne blomstrer min ven
Og når det går imod forår igen 
Kom når engang jeg er blevet mig selv 
Og hvis du skal den vej alligevel 
Kom igen - Kom igen
Tap to rate this tab
# A B C D E F G H I J K L M N O P Q R S T U V W X Y Z