Song name
# A B C D E F G H I J K L M N O P Q R S T U V W X Y Z

Kim Larsen - Tik Tik chords

Highlighted       Show chord diagrams
TIK TIK by Kim Larsen


   G         Bm        G                       Bm
E|----|----|----|----|-----------|-----------|-----------|-----------|
B|----|----|----|----|-----------|-----------|-----------|-----------|
G|----|----|----|----|-----------|-----------|-----------|-----------|
D|----|----|----|----|-----------|-----------|-----------|-----------|
A|----|----|----|----|-4h5-2-----|-4h5-2-----|-4h5-2-----|-----------|
E|----|----|----|----|-----------|-----------|-----------|-----------|

   G                       Bm                      G
E|-----------|-----------|-----------|-----------|----------|----------|
B|-----------|-----------|-----------|-----------|----------|----------|
G|-----------|-----------|-----------|-----------|-6h7-4----|-6h7-4----|
D|-----------|-----------|-----------|-----------|----------|----------|
A|-4h5-2-----|-4h5-2-----|-4h5-2-----|-----------|----------|----------|
E|-----------|-----------|-----------|-----------|----------|----------|

   Bm
E|----------|-----------|
B|----------|-----------|
G|-6h7-4----|-----------|
D|----------|-----------|
A|----------|-----------|
E|----------|-----------|


D  F#m            Bm
   Venner det var vi
Em       A      D
ærlighed var en dyd for os
         G
til evig tid
         D       A
til evig tid, ja ja
D  F#m             Bm
   Blodbrødre blev vi
Em        A     D
loved' hinanden troskab
         G
til evig tid
         D       A
til evig tid, ja ja

Bm       A
Tik tik
Bm       A
Tik tik
                G
Klokken slår og slår

Tiden går og går
            Bm
vi levede i går

|G| - |G| - |Bm| - |Bm|

G                                    Bm
  vi levede i går og klokken slår og slår

|G| - |G| - |Bm| - |Bm| x 3


D  F#m             Bm
   Voksne det blev vi
Em        A       D
Glemte de ting vi lovede
         G            
måske en dag
         D       A
måske en dag, ja ja
D  F#m       Bm
   Da vil vi huske
Em       A      D
løfterne som os sammen bandt
         G
måske en dag
         D       A
måske en dag, ja ja


Bm       A
Tik tik
Bm       A
Tik tik
                G
Klokken slår og slår

Tiden går og går
            Bm
vi levede i går

|G| - |G| - |Bm| - |Bm|

G                                    Bm
  vi levede i går og klokken slår og slår

|G| - |G| - |Bm| - |Bm| ad lib
Tap to rate this tab
# A B C D E F G H I J K L M N O P Q R S T U V W X Y Z