Song name
# A B C D E F G H I J K L M N O P Q R S T U V W X Y Z

Kim Mitchell - Go For A Soda tab

Hey guys,

This is my first submitted tab to UG for Kim Mitchells Go For A Soda. I'm not positive 
is exactly what he plays but it should give you a good idea. As I usually improvise 
the parts I'm not too sure on. I just tab what I play :)

I hope this helps you guys out!


Kelldrim.

e[-----------------------------------------------------------]
B[-----------------------------------------11-11-11-11b------]
G[-------10~------10~------8-8---8---8-10b--------------8~---]
D[---------------------8h10----10--10------------------------]
A[-8-8-8-----8-8-8-------------------------------------------]
E[-----------------------------------------------------------]
                                      Bend the 10 and 11 real slow.

e[-------------------------]
B[-------------------------]
G[------8-8--8---8-10b-----]
D[-8h10----10--10----------]
A[-------------------------]
E[-------------------------]

I'm a tad fuzzy around this part but it goes kinda like

e[----------------------------------------------------------]
B[-----------11-10-8-------------11p10p8--------------------]
G[-10-8h10p8--------10~-10-8h10p8---------------------------]
D[-10-8h10p8------------10----------------10-9-8------------]
A[-----------------------------------------------10-9-10-9~-]
E[----------------------------------------------------------]
                                       [--Pinch Harmonics--]

e[-----------------]
B[-----------------]
G[-10-8------------]
D[-10--10-8-10~~~/-]
A[-----------------]
E[-----------------]
Tap to rate this tab
 
# A B C D E F G H I J K L M N O P Q R S T U V W X Y Z