Kindgren - And I Love Her tab

#----------------------------------PLEASE NOTE---------------------------------#
#This file is the author's own work and represents their interpretation of the #
#song. You may only use this file for private study, scholarship, or research. #
#------------------------------------------------------------------------------#

Date:  02.01.2011
Tabbed by Peter Tuyp(peter.tuyp@wxs.nl)

Subject:
Beatles - And I love her
Performed by Per Olov Kindgren
http://www.youtube.com/watch?v=MdL-T3Rgg5U


Am	x02210
Emadd9	022002
Em	022000
C	032013
D7      x00212
G13	3x2001
Bm	224432
C	032010
D7	000212
D	200232
A	202220
B7 	x21202

^	appregio
<>      harmonic
()	muted


  Em    Am                        Em    Am
|---8-7-5------------------------------------|
|-8------------------------------------------|
|-----------------------------------5-4------|
|---------------------------------5-----7----|
|--------------------------------------------|
|--------------------------------------------|

  Em    Am               Emadd9(Em)      Am               Emadd9(Em)             
|-----------------------^2-0---3-------------------------^2-0-------------|
|---------------0---1---^0---------0-------------0---1---^0---------0---0-|
|-----------2-----------^0-------0---0-------2-----------^0-----0-----0---|
|---------2---2---2---2------2---------2---2---2---2---2----------4---2---|
|---3-2-0--------------------------------0--------------------2-----------|
|-3-----------------------------------------------------------------------|

  Am               Emadd9(Em)      C               D7            G13
|-----------------^2-0---3-------------3---0-------------------------|
|---------0---1---^0---------0---0-----1---1---1-------------------0-|
|-----2-------0---^0---------0---0---0---0---0---0-4-2-------------0-|
|---2---2---2---2----------2---2-------------------0--------2-0-^2---|
|-0--------------------2-----------3--------------------------0------|
|--------------------------------------------------------2------^3---|

  Am               Emadd9(Em)             Am               Emadd9(Em)
|-----5---7---8---^14-12---15-----------------5---7---8---^14-12---0-----------|
|-----5---5---5---^-0----0----0-----0---------5---5---5---^-0----0------0----0-|
|---5---5---5---5-^-0----0----0-----0-------5---5---5---5-^-0----0------0----0-|
|-------------------------------(0)---(0)----------------------------16---14---|
|-0---------------------------------------0------------------------------------|
|------------------------------------------------------------------------------|

  Am               Emadd9(Em)             C               D7            G13
|-----5---7---8---^14-12---15-----------------3---0-------------------------|
|-----5---5---5---^-0----0-------0------0-----1---1---1---0---------------0-|
|---5---5---5---5-^-0----0-------0------0---0---0---0---0---2----------^0-0-|
|-----------------------------14---<12>-------------------0--------2-0-^2---|
|-0---------------------------------------3---------------------------------|
|---------------------------------------------------------------2------^3---|

                 
|-----------------|
|---0-------0-----|
|---0-------0-----|
|-2---0-----------|
|---------2-------|
|-------------3---|

   Em            Bm                  Em               Bm
|-----------------------------------------^2-----------------------------|
|-^0-----0-^0-0---3-----------------------^0---3---0---------------------|
|-^0-------^0-----------4---------4-------^0-------0-------4---------4---|
|-^2-------^2---------4---4-----4-4-----2----2---2---0---4---4-----4-4-4-|
|-^2-------^2-------2-------0h2-----2------------------2-------0h2-------|
|-^0---0--------0---------------------0----------------------------------|

  Em               Bm                     D7          
|-----^2------------------------------------------------^2---^0-------|
|-----^0---3---0---3------------3-----------------------^1---^1---3---|
|-----^0-------0-------4---^4---4---4-2-------2-2-----2-^2---^2---2---|
|---2----2---2---0---4---4-^4-4---4-------0-0-----0-0------0----0---0-|
|--------------------------^2-----------------------------------------|
|-0-------------------------------------------------------------------|

  Am               Em                     Am               Em 
|-----5---7---8---^14-12---15-----------------5---7---8---^14-12---0-----------|
|-----5---5---5---^-0----0----0-----0---------5---5---5---^-0----0------0----0-|
|-----5---5---5---^-0----0----0-----0-------5---5---5---5-^-0----0------0----0-|
|-------7---7-------------------(0)---(0)----------------------------16---14---|
|-0---------------------------------------0------------------------------------|
|------------------------------------------------------------------------------|

  Am               Em                     C             D7                 G13
|-----5---7---8---^14-12---15-----------------3---0------------------------------|
|-----5---5---5---^-0----0-------0------0-----1---1---1---^0-------------------0-|
|---5---5---5---5-^-0----0-------0------0---0---0---0---0----2-------------------|
|-----------------------------14---<12>-------------------^0----------2-0-^2---2-|
|-0---------------------------------------3-------------------------------^2-----|
|-----------------------------------------------------------------2-------^3-----|

  Am                                  
|---------------------------------------------------5----|
|-----1-------1-------1---------------------------5------|
|-----2-------2-------2-------------------------6--------|
|---2---2---2---2---2---2---------------------7----------|
|-0-------0-------0-------0-------3---2-----7------------|
|-----------------------------3-----------5--------------|

Tap to rate this tab
 
# A B C D E F G H I J K L M N O P Q R S T U V W X Y Z