Song name
# A B C D E F G H I J K L M N O P Q R S T U V W X Y Z

Kinesis - Better Than Life tab

standerd tuneing (eadgbe)



intro guitar 1
|-5----5----6----6---|
|-6--6---6--6--6---6-|
|--------------------|
|--------------------|
|--------------------|
|--------------------|
let it all ring


intro guitar 2
|---------------------------------|
|---------------------------------|
|-3-3-3-3-2-2-2-2-3-3-3-3---------|
|-------------------------3-3-3-3-|  x3
|---------------------------------|
|---------------------------------|

|---------------------|
|---------------------|
|-3-3-3-3-2h3p2h3p2---|
|---------------------|
|---------------------|
|---------------------|
Tap to rate this tab
# A B C D E F G H I J K L M N O P Q R S T U V W X Y Z