Song name
# A B C D E F G H I J K L M N O P Q R S T U V W X Y Z

King Creosote - Marguerita Red chords

Highlighted       Show chord diagrams
-------------------------------------------------------------------------------
			     Marguerita Red - King Creosote
-------------------------------------------------------------------------------
Tabbed by: Gregor Young	
Email: gregor.young@gmail.com

Tuning: EADGBE
CAPO 3RD
    D                C               G/E              C
e|--------------------------------------------------------------------||
B|---------3----------------1---------------0---------------1---------||
G|----2--------2------------------------------------------------------||
D|--0---0----0---0-----2--------2------0--------0-------2-------2-----||
A|-------------------3---3----3---3--2---2----2---2---3---3---3---3---||
E|--------------------------------------------------------------------||


G/E=020000

D              C                                      
	I could be pouring my heart out
	G/E                        C
I still don't think that you'd hear me
D               C
	I could be crying my eyes out
  G/E                     C
I still don't think you'd hold me
D                  C     
	I've tried to shout you down
    G/E	                     C
You just turn around and you smile
         D 
Then you go


C               G           C           G 
	Marguerita Red
C	            G           C           G  
	Marguerita bled me dry

I could hold my head in my hands
You wouldn't think to ask me
I could voice my fears out loud
You wouldn't think to help me
I've tried to hold you down
You scream out loud and you smile
Then you go

Marguerita stain
Marguerita stay awhile

I could hold my head in my hands
You just turn around and you smile
Then you go
Tap to rate this tab
# A B C D E F G H I J K L M N O P Q R S T U V W X Y Z