Song name
# A B C D E F G H I J K L M N O P Q R S T U V W X Y Z

King Crimson - Moonchild tab

-------------------------------------------------------------------------------
                           Moonchild - King Crimson
-------------------------------------------------------------------------------

NOTE: This does not contain The Dream or The Illusion. The Dream has no 
guitar parts to be transcribed, as far as I can tell, and The Illusion is an 
improvisational jam.

TUNING: STANDARD (E A D G B e)

VERSE:
e|---------------------------------|
B|-----5-------5-------5-------5---|
G|-----5-------5-------5-------5---|
D|---7-------5-------4-------3-----|
A|-0-------0-------0-------0-------|
E|---------------------------------|
"Call her moonchild..."

CHORUS:                                      1st ending|2nd ending
e|--------------------------------------------|--------|-------|
B|-----6-------8---10---8---5-------6-------8-|-10-----|-1-----|
G|-----5-------7----9---7---5-------5-------7-|--9-----|-2-----|
D|---7-------9-----10---9---7-----7-------9---|-10-----|-2-----|
A|-5-------7--------8---7---7---5-------7-----|--0-----|-0-----|
E|--------------------------------------------|--------|-------|
"Talking to the trees..."

Call her moonchild
Dancing in the shallows of a river
Lovely moonchild
Dreaming in the shadow
of the willow.

Talking to the trees of the
cobweb strange
Sleeping on the steps of a fountain
Waving silver wands to the
night-birds song
Waiting for the sun on the mountain.

She's a moonchild
Gathering the flowers in a garden.
Lovely moonchild
Drifting on the echoes of the hours.

Sailing on the wind
in a milk white gown
Dropping circle stones on a sun dial
Playing hide and seek
with the ghosts of dawn
Waiting for a smile from a sun child.

************************************

| /   slide up
| \   slide down
| h   hammer-on
| p   pull-off
| ~   vibrato
| +   harmonic
| x   Mute note
| b   Bend
| pb  Pre-bend
| br  Bend release
| pbr Pre-bend release
| brb Bend release bend

************************************
Tap to rate this tab
# A B C D E F G H I J K L M N O P Q R S T U V W X Y Z