Song name
# A B C D E F G H I J K L M N O P Q R S T U V W X Y Z

King Gizzard And The Lizard Wizard - Danger tab

                    King Gizzard and the Lizard Wizard - Danger $$$
                         from their 2011 EP Willoughby's Beach

Intro:
Guitar hits the B major chord a couple of times and then you just
make crazy noises by rapidly hitting the strings and sliding your
hand up the fretboard. The guitar is double-tracked and plays again
a second or two later in the other speaker:
Guitar:
e|-7--7--7--7--////////|
B|-7--7--7--7--////////|
G|-8--8--8--8--////////|
D|-9--9--9--9--////////|
A|-9--9--9--9--////////|
E|-7--7--7--7--////////|


Pre-verse:
Guitar:
e|-7----7-5----|
B|-7----9-7----|
G|-8----9-7----| x4
D|-9----9-7----|
A|-9----7-5----|
E|-7-----------|


Verse:
"Danger money, danger money, danger money, I want danger money,
Danger money, danger funny, danger money, I want danger money"
Fuzz guitar:
e|-------------|
B|-------------|
G|-------------| x8
D|-------------|
A|------7-5----|
E|-7-----------|

Guitar:
e|-------------|
B|-------------|
G|------9-7----| x8
D|-9----9-7----|
A|-9----7-5----|
E|-7-----------|


Chorus:
"Ohhhhhhhhh"
Similar to the intro, no chords or specific notes are played
here, just make lots of noise by sliding up the fretboard:
Guitar:
e|////////////////|
B|////////////////|
G|////////////////|
D|////////////////|
A|////////////////|
E|////////////////|


Verse:
"Danger money, danger money, danger money, I want danger money,
Danger money, danger funny, danger money, I want danger money"
Fuzz guitar:
e|-------------|
B|-------------|
G|-------------| x8
D|-------------|
A|------7-5----|
E|-7-----------|

Guitar:
e|-------------|
B|-------------|
G|------9-7----| x8
D|-9----9-7----|
A|-9----7-5----|
E|-7-----------|


Chorus:
"Ohhhhhhhhh"
Guitar:
e|////////////////|
B|////////////////|
G|////////////////|
D|////////////////|
A|////////////////|
E|////////////////|


Harmonica solo:
Guitar very quietly plays this in the background:
e|-------------|
B|-------------|
G|-------------| x8
D|-------------|
A|------7-5----|
E|-7-----------|


Bridge:
"Danger money, danger money, danger funny, danger funny,
Danger money, danger money, danger money, danger money, come on!"
Fuzz guitar just sustains this note:
e|------------------|
B|------------------|
G|------------------|
D|------------------|
A|------------------|
E|-7----------------|


2nd harmonica solo - slower tempo:
Fuzz guitar:
e|-------------|
B|-------------|
G|-------------| x16
D|-------------|
A|------7-5----|
E|-7-----------|

Guitar:
e|-------------|
B|-------------|
G|------9-7----| x16
D|-9----9-7----|
A|-9----7-5----|
E|-7-----------|


Outro:
"Danger, danger"
Fuzz guitar:
e|-------------|
B|-------------|
G|-------------| x4
D|-------------|
A|------7-5----|
E|-7-----------|


End on:
Fuzz guitar:
e|---------|
B|---------|
G|---------|
D|---------|
A|---------|
E|-7--.----|



************************************

| /   slide up
| \   slide down
| h   hammer-on
| p   pull-off
| ~   vibrato
| +   harmonic
| x   Mute note
| .   staccato
| b   Bend
| pb  Pre-bend
| br  Bend release
| pbr Pre-bend release
| brb Bend release bend

************************************    

http://kinggizzardandthelizardwizard.com/
http://www.facebook.com/kinggizzardandthelizardwizard
Tap to rate this tab
# A B C D E F G H I J K L M N O P Q R S T U V W X Y Z