Song name
# A B C D E F G H I J K L M N O P Q R S T U V W X Y Z

Kingdom Come - Do You Like It tab

e -----------------------------------------------------------------------------------------------|
B -----------------------------------------------------------------------------------------------|
G -5-------------5------4-------------4------5-------------5------7------5------4------2------5--|
D -5-------------5------5-------------5------5-------------5------5------5------5------2------5--|
A -----------------------------------------------------------------------------------------------|
E ----(0)(0)(0)----(0)----(0)(0)(0)----(0)----(0)(0)(0)----(0)----(0)----(0)----(0)----(0)-------|

e ---------------------------------------------------------------|
B ---------------------------------------------------------------|
G -10-----9-----10-----12-----10-----9-----7-----10--------------|         2X
D -10----10----10-----10-----10-----10----7-----10---------------|
A ---------------------------------------------------------------|
E ---------------------------------------------------------------|


e ------------------------------------------------------------------------------|
B ------------------------------------------------------------------------------|
G ------------------------------------------------------------------------------|
D ------------------------------------------------------------------------------|
A ------2-2-2-3-------4-4-4-5-----0-2p0 3p0-2p0-7p0-5p0-3-2-0-1-----------------|
E -1--1-----------3--3-----------5----------------------------------------------|
Tap to rate this tab
# A B C D E F G H I J K L M N O P Q R S T U V W X Y Z