Song name
# A B C D E F G H I J K L M N O P Q R S T U V W X Y Z

Kingdom Hearts - Dearly Beloved tab

Apparently this song is called "dearly beloved" but its the menu music before you start 
play it slow. I'm pretty sure this is the most accurate you can get.


e|------8--------10--8--------10--11--10--15--13h15p13--11--10--8--6----|
B|---------8--6---------8--6--------------------------------------------|
G|----------------------------------------------------------------------|
D|----------------------------------------------------------------------|
A|----------------------------------------------------------------------|
E|----------------------------------------------------------------------|

e|------8--------10--8--------10--11--10--15--13--11--10--8--6----------|
B|---------8--6---------8--6--------------------------------------------|
G|----------------------------------------------------------------------|
D|----------------------------------------------------------------------|
A|----------------------------------------------------------------------|
E|----------------------------------------------------------------------|
Tap to rate this tab
# A B C D E F G H I J K L M N O P Q R S T U V W X Y Z