Song name
# A B C D E F G H I J K L M N O P Q R S T U V W X Y Z

Kingdom Hearts - Hikari tab

This is my first tab any questions message me on here first, if I don't respond email me 
rex_779@hotmail.com. Feedback welcome.

Intro/Chorus 1
|---10~-8----------|
|-8-------11-10-11-|
|------------------| X3
|------------------|
|------------------|
|------------------|
                                                    (eight ten eleven eight)
----------------------11-10----------/13-11-10-8-10~-----------810118~-----|
-------------11-10-11-------11-10-11-----------------8-11~-8-11------------|
-10-10-10-10---------------------------------------------------------------|
---------------------------------------------------------------------------|
---------------------------------------------------------------------------|
---------------------------------------------------------------------------|

Verse
|------------------------------------triplets--------------------------------|
|----10-11-11---10-11-11/13\8----10-{11-13-11}-10h11p10h11p10h11p10----10-11-|
|-10----------10--------------10------------------------------------10-------|
|----------------------------------------------------------------------------|
|----------------------------------------------------------------------------|
|----------------------------------------------------------------------------|

--------|
-11--10b|
--------|
--------|
--------|
--------|

Bridge                                          (ten ten)    (ten eight ten)

|---------------------------------------------------------------------------|
|---------------------------------------------------------------------------|
|-------------------7-8---------------------7-8----------10-12-triplets-----|
|-10-8-10-8-10-8-10-----10-9-7-9-7-9-7-9-10-----1010-1010------10810-10810--|
|---------------------------------------------------------------------------|
|---------------------------------------------------------------------------|
 (seven eight ten)
------------------------------------------------------------------|
----------------------------------------------slower--------------|
-------7810/12~-10--------12br-12-----------8-{----8}------12-11b-|
-10810-------------10~-9~---------9-10-8-10---{8-10-}-10-9--------|
------------------------------------------------------------------|
------------------------------------------------------------------|

Play intro/chorus 1 again

Chorus 2 "Hold me..."                         (eleven ten eleven)
|------13--------13-13-15-13-11-10-11-13-------------111011-13-10-10h11p10p8-|
|-8-11----11-11b-------------------------11-11b-8-11-------------------------|
|----------------------------------------------------------------------------|
|----------------------------------------------------------------------------|
|----------------------------------------------------------------------------|
|----------------------------------------------------------------------------|

---------------------------------------------------10-8-10-11-|
-11-10-11----10-11--------------------8----8-11---------------|
----------10-------10-8-7-8-7-8-10-10---10------10------------|
--------------------------------------------------------------|
--------------------------------------------------------------|
--------------------------------------------------------------|

Play intro/chorus 1 again

Ending          (eleven eleven fourteen)
|------------------8----11111114-11111114-11111114-16-14-11-13b~----||
|-11b------8-10-11---11---------------------------------------------||
|-----8-10-------------------------------------------------------7~-||
|----------------------------------------------------------------8~-||
|----------------------------------------------------------------8~-||
|----------------------------------------------------------------6~-||

I would like to thank androidab (Dijon) of youtube who made the tutorial that i 
this tab from.  You can see that video here:
http://www.youtube.com/watch?v=tMIyuK4EPqQ.  Thank you Utada Hikaru for an excellent 
and the people at Square-Enix for making such an amazing game.  Here's to hoping for 
Hearts 3! (also check out "KH: Birth by Sleep," "KH:Coded" and "KH:358/2 Days")
Tap to rate this tab
# A B C D E F G H I J K L M N O P Q R S T U V W X Y Z