Kings Of Ayr - Chemicals tab

ITS ALL PLAYED ON 'e' SO ITS ALL FAIRLY FORWARD.

e/--10--10--10--10--10--10--10--/
B/------------------------------/
G/------------------------------/
D/------------------------------/
A/------------------------------/
E/------------------------------/

e/--9--9--9--9--9--9--9---------/
B/------------------------------/
G/------------------------------/
D/------------------------------/
A/------------------------------/
E/------------------------------/

e/--8--8--8--8--8--8--8---------/
B/------------------------------/
G/------------------------------/
D/------------------------------/
A/------------------------------/
E/------------------------------/

e/--7--7--7--7--7--7--7---------/
B/------------------------------/
G/------------------------------/
D/------------------------------/
A/------------------------------/
E/------------------------------/

e/--5---5---5---5---5-----------/
B/------------------------------/
G/------------------------------/
D/------------------------------/
A/------------------------------/
E/------------------------------/

e/--2-2-2-2-2-2-2-2--1----------/
B/------------------------------/
G/------------------------------/
D/------------------------------/
A/------------------------------/
E/------------------------------/

e/--2-2-2-2-2-2-2-2--1----------/
B/------------------------------/
G/------------------------------/
D/------------------------------/
A/------------------------------/
E/------------------------------/

e/--2--1--0--1/--2--1--0--1-----/x4
B/------------------------------/
G/------------------------------/
D/------------------------------/
A/------------------------------/
E/------------------------------/

WE ARE A NEW BAND AND PLEASE VISIT THESE PAGES BELOW:

http://www.youtube.com/user/SOMMERCRAIG?feature=mhum

http://www.kingsofayr.moonfruit.com/
Tap to rate this tab
 
# A B C D E F G H I J K L M N O P Q R S T U V W X Y Z