Song name
# A B C D E F G H I J K L M N O P Q R S T U V W X Y Z

Kings Of Convenience - 24-25 tab

Artist: Kings Of Convenience
Album: Declaration Of Dependence
Song: 24-25

Guitar 1 tuning: Standard, capo 9th fret
Guitar 2 tuning: Standard, no capo
Time Signature: 4/4
Tempo: ~122 BPM

-Intro-

Guitar 1

e-----------------------------------------------------------------------|
b-----9--------9-------12-------12--------9-------9--------9--------9---|
g---9---9----9---9---11--11---11---9----9---9---9---9----9---9----9---9-| x 2
d---------11----------------9-----------------9----------------11-------|
a-12---------------9-----------------11---------------12----------------|
e-----------------------------------------------------------------------|

-Verse 1/Chorus 1-
She'll be gone soon, you can have me for yourself
She'll be gone soon, you can have me for yourself
But do give, just give me today
Or you will just scare me away

Guitar 1

e-----------------------------------------------------------------------|
b-----9--------9-------12-------12--------9-------9--------9--------9---|
g---9---9----9---9---11--11---11---9----9---9---9---9----9---9----9---9-| x 4
d---------11----------------9-----------------9----------------11-------|
a-12---------------9-----------------11---------------12----------------|
e-----------------------------------------------------------------------|

-Verse 2/Chorus 2- (Guitar 2 comes in at this point)
What we build is bigger than the sum of two
What we build is bigger than the sum of two
But somewhere, I lost count of my own
And somehow, I must find it alone

Guitar 1

e-----------------------------------------------------------------------|
b-----9--------9-------12-------12--------9-------9--------9--------9---|
g---9---9----9---9---11--11---11---9----9---9---9---9----9---9----9---9-| x 6
d---------11----------------9-----------------9----------------11-------|
a-12---------------9-----------------11---------------12----------------|
e-----------------------------------------------------------------------|

Guitar 2
     Amaj7                            B6                                       E         Amaj7
e------------0-----------------0----------------0-----------------0-----|
b-----2----2------------0-----------------0-------0--------2----2-------|
g--------------1------------1-----------------------1-------------------| x 6
d-------2--------2--------1-------------------2--------------2------2---|
a-0----------------2-----------------------------------0----------------|
e-------------------------------------0---------------------------------|

Note: For the chorus, Eirik is actually playing the same chords, but in a different 
somewhere farther up on the strings. I haven't figured it out yet, but if I do, I'll change 
on here.

-Fill 1-

Guitar 2
Amaj7
e------------0----------------0----|
b-----2----2-----------2----2------|
g----------------------------------|
d-------2------2---------2------2--|
a-0----------------0---------------|
e----------------------------------|

-Interlude 1-

Guitar 1

e-----------------------------------------------------------------------|
b-----12-------9--------12-------9--------12-------9--------12-------9--|
g11-13--9----9---9-11-13--9----9---9-11-13--9----9---9-11-13--9----9---9|
d---------13----------------13----------------13----------------13------|
a-----------------------------------------------------------------------|
e-----------------------------------------------------------------------|

e----------------------------------------11-----9-----------------------|
b-----12-------9--------12-------9--------------------11-----9----------|
g11-13--9----9---9-11-13--9----9--------9-----9-----9----9--------------|
d---------13----------------13-------13----13----13-------11------9h11--|
a-----------------------------------------------------------------------|
e-----------------------------------------------------------------------|

Guitar 2
     Amaj7                            B6                                       E         Amaj7
e------------0-----------------0----------------0-----------------0-----|
b-----2----2------------0-----------------0-------0--------2----2-------|
g--------------1------------1-----------------------1-------------------| x 2
d-------2--------2--------1-------------------2--------------2------2---|
a-0----------------2-----------------------------------0----------------|
e-------------------------------------0---------------------------------|

-Verse 3/Chorus 3-
24 and blooming like the fields of May
25 and yearning for a ticket out
Dreams burn, but in ashes, are gold
Dreams burn, but in ashes, are gold

Guitar 1

e-----------------------------------------------------------------------|
b-----9--------9-------12-------12--------9-------9--------9--------9---|
g---9---9----9---9---11--11---11---9----9---9---9---9----9---9----9---9-| x 2
d---------11----------------9-----------------9----------------11-------|
a-12---------------9-----------------11---------------12----------------|
e-----------------------------------------------------------------------|

Guitar 2
     Amaj7                            B6                                       E         Amaj7
e------------0-----------------0----------------0-----------------0-----|
b-----2----2------------0-----------------0-------0--------2----2-------|
g--------------1------------1-----------------------1-------------------| x 2
d-------2--------2--------1-------------------2--------------2------2---|
a-0----------------2-----------------------------------0----------------|
e-------------------------------------0---------------------------------|

Guitar 1

e-----------------------------------------------------------------------|
b----10-------10-------12-------12-------12-------9--------9--------9---|
g--11--11---11--11---11--11---11---9----9---9---9---9----9---9----9---9-| x 2
d---------11----------------9----------------------------------11-------|
a-9----------------9-----------------11-------9-------12----------------|
e-----------------------------------------------------------------------|

Guitar 2
     F#m7                            B6                                        E/C#      Amaj7
e------------------------------0----------------0-----------------0-----|
b-----2--------2--------0-----------------0-------0--------2----2-------|
g------------2--------------1-----------------------1-------------------|
d---2---2--------2--------1-------------------2--------------2------2---|
a----------4-------2------------------4----------------0----------------|
e-2---------------------------------------------------------------------|

-Fill 2-

Guitar 1

e------9--------------------------------------------------|
b---------------9---------9--------9---------9--------9---|
g----9---9----9---9-----9---9----9---9-----9---9----9---9-|
d----------11-----------------11-----------------11-------|
a-12-----------------12-----------------12----------------|
e---------------------------------------------------------|

Guitar 2
Amaj7
e-------------0------------------0------------------0-----|
b------2----2-------------2----2-------------2----2-------|
g---------------------------------------------------------|
d--------2------2-----------2------2-----------2------2---|
a--0------------------0------------------0----------------|
e---------------------------------------------------------|

-Interlude 2-

Guitar 1

e--------14-12-11-9---------9---------------------9---------------------|
b-------9---------------9h12-12-----------9-----12----------------------|
g-----14-------------------------9----------9-13------------------------| x 2
d----------------------------------9-13------------11-------------------|
a-----------------------------------------------------------------------|
e-----------------------------------------------------------------------|

Guitar 2
     F#m7                            B6                                        E/C#      F#m7
e------------2-----------------0----------------0-----------------2-----|
b-----2--------2--------0--------0--------0-------0--------2--------2---|
g-------2--------2--------1--------1--------1-------1--------2--------2-|
d----------2----------------1-----------------2-----------------2-------|
a------------------2------------------4---------------------------------|
e-2----------------------------------------------------2----------------|

     F#m7                            B6                                        E/C#      Amaj7
e------------2-----------------0----------------0-----------------0-----|
b-----2--------2--------0--------0--------0-------0--------2--------2---|
g-------2--------2--------1--------1--------1-------1--------1--------1-|
d----------2----------------1-----------------2-----------------2-------|
a------------------2------------------4----------------0----------------|
e-2---------------------------------------------------------------------|


Guitar 1

e---|-------------------------------------------------------------------|
b---|--------9------------9------------------9------------9---------9---|
g---|----11------------11-----------11----11-----------11--------11-----| x 2
d-9h|11-----------9h11---------9h11-----------------11--------11--------|
a---|----------------------------------11--------11---------------------|
e---|-------------------------------------------------------------------|

Guitar 2
     Amaj7                            B6                                       E         Amaj7
e------------0-----------------0----------------0-----------------0-----|
b-----2----2------------0-----------------0-------0--------2----2-------|
g--------------1------------1-----------------------1-------------------| x 2
d-------2--------2--------1-------------------2--------------2------2---|
a-0----------------2-----------------------------------0----------------|
e-------------------------------------0---------------------------------|

Then repeat the entire 2nd Interlude one more time.
Tap to rate this tab
# A B C D E F G H I J K L M N O P Q R S T U V W X Y Z