Song name
# A B C D E F G H I J K L M N O P Q R S T U V W X Y Z

Kings Of Convenience - Build-up tab

This is my first tab so bare with me. I think it sounds allright. Let me know. I love the Kings...


(Figure A)

E-0--------------0---------0----------0--------0---------------------------|
B-0--------------0---------0----------2--------0---------------------------|
G-4--------------4---------1----------4--------4---------------------------|
D-4--------------4---------2----------3--------4---------------------------|
A-4--------------0---------2----------4--------4---------------------------|
E-2--------------X---------0----------X--------2---------------------------|
The Build up...  Days...   weeks...            Long...  

Our hero withdrew 
When there was two 
He could not choose one
So there was none

E-0----------0---0---------------------------------------------------------|
B-3----------0---0---------------------------------------------------------|
G-3----------4---4---------------------------------------------------------|
D-3----------4---4---------------------------------------------------------|
A-0----------2---4---------------------------------------------------------|
E-0----------X---2---------------------------------------------------------|
Worn into...     Vaguely...

(Figure A)   Play "Figure A" with this Part.

The spinning top made a sound like a train across the valley 
Fading, oh so quiet, but constant 'til it passed 
Over the ridge into the distances, written on your ticket 
To remind you where to stop 
And when to get off
When to get off
When to get off
When to get off 

             
Tap to rate this tab
# A B C D E F G H I J K L M N O P Q R S T U V W X Y Z