Song name
# A B C D E F G H I J K L M N O P Q R S T U V W X Y Z

Kings Of Convenience - Gold In The Air Of Summer chords

Help us improve GuitareTab! Take a short survey!
Highlighted       Show chord diagrams
Tuning: E A D Gb A D


Note: this is not in the same key as the song, so play around with a capo to get 
it right.  Also, the chords are probably not exact, but no one else has posted 
anything for this song, so here's a start


Main Chords:

 1   2    3   4    5   6    7   8

|0---0---|0---0---|0---0---|0---0---|
|0---0---|0---0---|0---0---|0---0---|
|0---0---|0---0---|0---0---|0---0---|
|0---0---|0---0---|0---0---|0---0---|
|2---5---|5---9---|2---5---|5---4---|
|3---3---|7---10--|3---3---|7---5---|

(with lyrics)
1                  2
 Without giving anything away
3               4
 I can say it's by the sea
5                  6
 It's a house that used to be
7         8
 The home of a friend of mine 






Ending

 a        b        c        d

|0-------|0-------|0-------|0-------|
|0-------|0-------|0-------|0-------|
|0-------|0-------|0-------|7-------|
|4-------|7-------|7-------|7-------|
|5-------|5-------|7-------|7-------|
|0-------|0-------|0-------|0-------|



(with lyrics)

a           b      c      d
Gold in the air of summer
d                 a           b      c       d
You'll shine like gold in the air of summer 
Related for Gold In The Air Of Summer chords