Guitaretab - guitar tabs
Song name
# A B C D E F G H I J K L M N O P Q R S T U V W X Y Z

Kings Of Leon - Pony Up tab

Pony up off new album Come Around Sundown.

Intro:

Jared plays bass riff then matthew comes in with..

Gtr.2 Matthew
e|--10-12--10-7------------12-10-7----10-12--10-7---------------------|
B|----------------10b12-----------------------------10b12---14-12-10--|
G|--------------------------------------------------------------------| 
D|--------------------------------------------------------------------| x2
A|--------------------------------------------------------------------|
E|--------------------------------------------------------------------|

whilst caleb plays this..

Gtr.1 Caleb 
e|--0--0--0--0--0--0--0--0--0--0--0--0--0--0--0--0--0--0--0--0--0--0--|
B|--10-10-10-10-10-10-10-10-10-10-10-10-10-10-10-10-10-10-10-10-10-10-|
G|--------------------------------------------------------------------|
D|--------------------------------------------------------------------| x2
A|--------------------------------------------------------------------|
E|--------------------------------------------------------------------|


Verse 1:

Gtr.1 Caleb 
e|--------------------------------------------------------------------|
B|--------------------------------------------------------------------|
G|-x-x-x-x-11-x-x-x-x-8---------x-x-8-x-x-x-x-6-x-x-x-x---------------|
D|-x-x-x-x-12-x-x-x-x-9---------x-x-9-x-x-x-x-7-x-x-x-x---------------| x8
A|-x-x-x-x-12-x-x-x-x-9---------x-x-9-x-x-x-x-7-x-x-x-x---------------|
E|-x-x-x-x-10-x-x-x-x-7---------x-x-7-x-x-x-x-5-x-x-x-x---------------|
 
after caleb plays his part 4 times Matt comes in with..

Gtr.2 Matthew- (3's and 5's are palm muted)
e|--------------------------------------------------------------------|
B|-10--8--7--33333-55555-33-------------------------------------------|
G|--------------------------------------------------------------------| 
D|--------------------------------------------------------------------| x4
A|--------------------------------------------------------------------|
E|--------------------------------------------------------------------|


Chorus:

same as intro..

Gtr.2 Matthew
e|--10-12--10-7------------12-10-7----10-12--10-7---------------------|
B|----------------10b12-----------------------------10b12---14-12-10--|
G|--------------------------------------------------------------------| 
D|--------------------------------------------------------------------| x2
A|--------------------------------------------------------------------|
E|--------------------------------------------------------------------|


Gtr.1 Caleb 
e|--0--0--0--0--0--0--0--0--0--0--0--0--0--0--0--0--0--0--0--0--0--0--|
B|--10-10-10-10-10-10-10-10-10-10-10-10-10-10-10-10-10-10-10-10-10-10-|
G|--------------------------------------------------------------------|
D|--------------------------------------------------------------------| x2
A|--------------------------------------------------------------------|
E|--------------------------------------------------------------------|


Verse 2:



Gtr.1 Caleb 
e|--------------------------------------------------------------------|
B|--------------------------------------------------------------------|
G|-x-x-x-x-11-x-x-x-x-8---------x-x-8-x-x-x-x-6-x-x-x-x---------------|
D|-x-x-x-x-12-x-x-x-x-9---------x-x-9-x-x-x-x-7-x-x-x-x---------------| x8
A|-x-x-x-x-12-x-x-x-x-9---------x-x-9-x-x-x-x-7-x-x-x-x---------------|
E|-x-x-x-x-10-x-x-x-x-7---------x-x-7-x-x-x-x-5-x-x-x-x---------------|
 
[ Tab from: http://www.guitaretab.com/k/kings-of-leon/250957.html ]
Gtr.2 Matthew- (3's and 5's are palm muted)
e|--------------------------------------------------------------------|
B|-10--8--7--33333-55555-33-------------------------------------------|
G|--------------------------------------------------------------------| 
D|--------------------------------------------------------------------| x8
A|--------------------------------------------------------------------|
E|--------------------------------------------------------------------|



Chorus:


Gtr.2 Matthew
e|--10-12--10-7------------12-10-7----10-12--10-7---------------------|
B|----------------10b12-----------------------------10b12---14-12-10--|
G|--------------------------------------------------------------------| 
D|--------------------------------------------------------------------| x2
A|--------------------------------------------------------------------|
E|--------------------------------------------------------------------|


Gtr.1 Caleb 
e|--0--0--0--0--0--0--0--0--0--0--0--0--0--0--0--0--0--0--0--0--0--0--|
B|--10-10-10-10-10-10-10-10-10-10-10-10-10-10-10-10-10-10-10-10-10-10-|
G|--------------------------------------------------------------------|
D|--------------------------------------------------------------------| x2
A|--------------------------------------------------------------------|
E|--------------------------------------------------------------------|


Breakdown:

just Jared and Matthew playing, caleb stops..

Gtr.2 Matthew
e|--10-12--10-7------------12-10-7--------------------|
B|----------------10b12-------------------------------|
G|----------------------------------------------------| 
D|----------------------------------------------------| x1
A|----------------------------------------------------|
E|----------------------------------------------------|

Chorus:

Gtr.2 Matthew
e|--10-12--10-7------------12-10-7----10-12--10-7---------------------|
B|----------------10b12-----------------------------10b12---14-12-10--|
G|--------------------------------------------------------------------| 
D|--------------------------------------------------------------------| x2
A|--------------------------------------------------------------------|
E|--------------------------------------------------------------------|


Gtr.1 Caleb 
e|--0--0--0--0--0--0--0--0--0--0--0--0--0--0--0--0--0--0--0--0--0--0--|
B|--10-10-10-10-10-10-10-10-10-10-10-10-10-10-10-10-10-10-10-10-10-10-|
G|--------------------------------------------------------------------|
D|--------------------------------------------------------------------| x2
A|--------------------------------------------------------------------|
E|--------------------------------------------------------------------|


Outro:


Gtr.2 Matthew
e|--10-12--10-7---------------------10-12--10-7-----------------------|
B|----------------10b12-10-10b12------------------10b12-10-12b14------|
G|--------------------------------------------------------------------| 
D|--------------------------------------------------------------------| x4
A|--------------------------------------------------------------------|
E|--------------------------------------------------------------------|


Gtr.1 Caleb 
e|--0--0--0--0--0--0--0--0--0--0--0--0--0--0--0--0--0--0--0--0--0--0--|
B|--10-10-10-10-10-10-10-10-10-10-10-10-10-10-10-10-10-10-10-10-10-10-|
G|--------------------------------------------------------------------|
D|--------------------------------------------------------------------| x2
A|--------------------------------------------------------------------|
E|--------------------------------------------------------------------|
Related for Pony Up tab
Pony Up chords by Kings Of Leon