Song name
# A B C D E F G H I J K L M N O P Q R S T U V W X Y Z

Kings Of Leon - Pyro chords

Highlighted       Show chord diagrams
Kings of Leon - Pyro
Album: Come Around Sundown (2010)

Chorded by Tony Crivello

myspace.com/tonycrivello
youtube.com/fallingardor
fallingardor.posterous.com

E|--------------------------------------------------|
B|----------4------------4----------4---------4-----|
G|----4-------4-----4------4----4-----4---4-----4---|
D|--2---2-------2-----2-------2---2-----1---1-----2-|
A|--------------------------------------------------|
E|--------------------------------------------------|
                                 
E|--------------------------------------------------|
B|----------4---------4--------4---------4----------|
G|----6---6----6---6----6---6----6---6--------------|
D|---------------------------------1-----2----------| 
A|--------------------------------------------------|
E|--------------------------------------------------|

 Repeat


C#m: X-4-6-6-5-x
A: 5-7-7-6-0-0
E: 0-2-2-1-0-0
G#: 4-6-6-x-x-x


C#m  -   A   -  E


C#m 
Single book of matches,
A                                  E
Gonna burn what's standing in the way.
C#m
Roaring down the mountain,
A                                  E
Now they're calling on the fire brigade.
G#           
Bury all the pictures,
A                            E
and tell the kids that I'm okay.
C#m
If'n I'm forgotten,
A                        E
You'll remember me for today.


C#m - A
I...
E
I won't ever be your cornerstone.
C#m - A
I...
E
I won't ever be your cornerstone.


C#m 
All the black inside me
A                            E
Is slowly seeping from the bone.
C#m
Everything I cherish
A                          E
Is slowly dying, or it's gone.

G#
Little shaken babies
A 	                    E
And drunkards seem to all agree,

C#m 
Once the show gets started,
A                            E
It's bound to be a sight to see.



G#-A-E
I won't ever be your cornerstone.
G#-A-E
I don't wanna be here holding on.
G#-A
I won't ever be your cornerstone.


I...


         C#m         
Watch her roll,
A            E
Can you feel it?
          C#m
Watch her roll,
A            E
Can you feel it?


         C#m         
Watch her roll,
A            E
Can you feel it?
          C#m
Watch her roll,
A            E
Can you feel it?

G#-A-E
I won't ever be your cornerstone.
G#-A-E
I don't wanna be here holding on.
G#-A
I won't ever be your cornerstone.

(replay picked intro)
I... 
Tap to rate this tab
 
# A B C D E F G H I J K L M N O P Q R S T U V W X Y Z