Kings Of Leon - Pyro tab

***THIS TAB ISN'T HALWAY DONE YET, I HAVENT GOT ANY TIME TO UPDATE IT LATELY SO I 
THOUGHT WHY NOT PUT IT OUT AS IT IS AND FINISH IT ANOTHER TIME, CUZ THIS IS 100% 
CORRECT AND WHAT IS CURRENTLY OUT ON UG IS NOT. SO, TRY THIS OUT AND IF I HAVENT 
UPDATED THIS ANY DAY SOON YOU MIGHT WANNA TRY TO LISTEN FOR THE REST OF THE NOTES, 
AND SINCE U'VE GOTTEN THE CHORDS IT SHOULD BE PRETTY EASY, BESIDES IT'S A GREAT EXERCISE =)***

Kings of Leon
Pyro
Come Around Sundown
2010
-
Will be updated soon
-

***
INTRO
***


[MATTHEW - LEFT GUITAR]

   1    &    2    &    3    &    4    &    
e|-----------------------------------------|
B|------4---------4---------4---------4----|
G|---4-----4---4-----4---4-----4---4-----4-|
D|-6---6-----6---6-----6---6-----6---6-----|
A|-----------------------------------------|\
E|-----------------------------------------| \
                                              \ repeat
   5    &    6    &    7    &    8    &       / twice
e|-----------------------------------------| /
B|------4---------4---------4---------4----|/
G|---6-----6---6-----6---6-----6---6-----6-|
D|-6---6-----6---6-----6---6-----6---6-----|
A|-----------------------------------------|
E|-----------------------------------------|

   1    &    2    &    3    &    4    &    
e|------7---------7---------7---------7----| -- repeat
B|---9-----9---9-----9---9-----9---9-----9-| -- four
G|/9---9-----9---9-----9---9-----9---9-----| -- times
D|-----------------------------------------|
A|-----------------------------------------|
E|-----------------------------------------|


[CALEB - RIGHT GUITAR]
[this part with much reverb/delay]

   1    &    2    &    3    &    4    &    
e|-----------------------------------------|
B|-----------------------------------------|
G|-----------------------------------------|
D|-----------------------------------------|
A|------14--------14--------14--------14---|\
E|-12--------12--------12--------11--------| \
                                              \ repeat
   5    &    6    &    7    &    8    &       / twice
e|-----------------------------------------| /
B|-----------------------------------------|/
G|-----------------------------------------|
D|-----------------------------------------|
A|------14--------14--------14--------14---|
E|-12--------12--------12--------11--------|

   1    &    2    &    3    &    4    &     
e|-----------------------------------------|
B|-----------------------------------------|
G|-----------------------------------------|
D|-11-------------11-s-7--------------7----|
A|-11-------------11-s-7--------------7----|\
E|-9---------------9-s-5--------------5----| \
                                              \ repeat
   5    &    6    &    7    &    8    &       / twice
e|-----------------------------------------| /
B|-----------------------------------------|/
G|-----------------------------------------|
D|-14--------------------------------------|
A|-14--------------------------------------|
E|-12--------------------------------------|


***
VERSE 1
***


[MATTHEW - LEFT GUITAR]

   1    &    2    &    3    &    4    &    
e|----7------------------------------------|
B|-----------------------------------------|
G|-8h9-------------------------------------|
D|-----------------------------------------|
A|-----------------------------------------|
E|-----------------------------------------|

   5    &    6    &    7    &    8    &    
e|-----------------------------------------|
B|-----------------------------------------|
G|---------doesnt-play-anything------------|
D|-----------------------------------------|
A|-----------------------------------------|
E|-----------------------------------------|

   1    &    2    &    3    &    4    &    
e|----7-----------------------------7------|
B|-----------------------------------------|
G|-8h9---------------------------8h9-------|
D|-----------------------------------------|
A|-----------------------------------------|
E|-----------------------------------------|

   5    &    6    &    7    &    8    &    
e|-----------------------------------------|
B|-9-let-ring------------------------------|
G|-----------------------------------------|
D|-----------------------------------------|
A|-----------------------------------------|
E|-----------------------------------------|

   1    &    2    &    3    &    4    &    
e|----7------------------------------------|
B|-----------------------------------------|
G|-8h9-------------------------------------|
D|-----------------------------------------|
A|-----------------------------------------|
E|-----------------------------------------|

   5    &    6    &    7    &    8    &    
e|-----------------------------------------|
B|-----------------------------------------|
G|---------doesnt-play-anything------------|
D|-----------------------------------------|
A|-----------------------------------------|
E|-----------------------------------------|

   1    &    2    &    3    &    4    &    
e|------7----------------------------------|
B|-----------------------------------------|
G|-8h9-------------------------------------|
D|-----------------------------------------|
A|-----------------------------------------|
E|-----------------------------------------|


[CALEB]
[again, either you use delay/reverb
or try to imitate the delay effect]

   1    &    2    &    3    &    4    &    
e|-----------------------------------------|
B|-----------------------------------------|
G|-----------------------------------------|
D|-----------------------------------------|
A|------11--------11--------7---------7----|
E|-9---------9---------5---------5---------|

   5    &    6    &    7    &    8    &    
e|-----------------------------------------|
B|-----------------------------------------|
G|-----------------------------------------|
D|-----------------------------------------|
A|------14--------14--------14--------14---|
E|-12--------12--------12--------12--------|

   1    &    2    &    3    &    4    &    
e|-----------------------------------------|
B|-----------------------------------------|
G|-----------------------------------------|
D|-----------------------------------------|
A|------11--------11--------7---------7----|
E|-9---------9---------5---------5---------|

   5    &    6    &    7    &    8    &    
e|-----------------------------------------|
B|-----------------------------------------|
G|-----------------------------------------|
D|-----------------------------------------|
A|------14--------14--------14--------14---|
E|-12--------12--------12--------12--------|
Tap to rate this tab
 
# A B C D E F G H I J K L M N O P Q R S T U V W X Y Z