Song name
# A B C D E F G H I J K L M N O P Q R S T U V W X Y Z

Kings Of Leon - Mi Amigo tab

--------------------------------------------------------------------------
			     MI AMIGO - KINGS OF LEON
--------------------------------------------------------------------------
Tabbed by:jamesmckee92
Album: Come Around Sundown

I've got a friend
Shows me all the good times
Tells me all look better
Chews me up and spits me out
And then walks my ass home
Sings a song, when I'm gone, gone, gone

That little friend
Shoots me up and down town
When I can't get me drunk enough
To pick me out the pieces
Of a place I call home
Sings a song, till I'm gone, gone, gone

A little friend
Shoots me up and downtown
When I can't get me drunk enough
To picky me out the pieces
Of a place I call home
To sing a song, till I'm gone, gone, gone (oh ya'know)
Gone, Gone, Gone

I've got a friend
Helps me to get up again
Showers me in boozes
Tells me i've got a big ol' dick
And she walks my ass home
To sing a song, till I'm gone, gone, gone (you know son!)
Gone, Gone, Gone, Gone, Gone, Gone

Rhythm: Comes in at start of "Shows me all the good times"

e|--3----------------10----------------------------------------------------|
B|--3----------------10----------------------------------------------------|
G|--4----------------11----------------------------------------------------|
D|--5----------------12----------------------------------------------------|
A|--5----------------12----------------------------------------------------|
E|--3----------------10----------------------------------------------------|
  G chord         D chord

For "Sings  a song" part play an A barre chord followed by a G barre chord:
e|-----5----------3----|
B|-----5----------3----|
G|-----6----------4----|
D|-----7----------5----|
A|-----7----------5----|
E|-----5----------3----|

Strum pattern is pretty easy, just listen to the song.

Lead: (Following last "Gone" of 1st verse and into chorus)
e|--------------------------|
B|---7-7--12-10-------------|
G|--------------------------|    x4
D|--------------------------|
A|--------------------------|
E|--------------------------|

e|------------------------------------------------------|
B|---------------15---------------15--------------------|
G|----------14h16------------14h16--16------------------|    x2
D|-----14h16------------14h16---------------------------|
A|------------------------------------------------------|
E|------------------------------------------------------|

STILL WORKING ON THE INTRO PART, WILL POST WHEN IVE WORKED IT OUT! JAMES

************************************

| /   slide up
| \   slide down
| h   hammer-on
| p   pull-off
| ~   vibrato
| +   harmonic
| x   Mute note
| b   Bend
| pb  Pre-bend
| br  Bend release
| pbr Pre-bend release
| brb Bend release bend

************************************
Tap to rate this tab
 
# A B C D E F G H I J K L M N O P Q R S T U V W X Y Z