Guitaretab - guitar tabs
Song name
# A B C D E F G H I J K L M N O P Q R S T U V W X Y Z

Kings Of Leon - Soft tab

            ****************************
            *KINGS OF LEON - SOFT - TAB*
            ****************************

b  -  Bend
sb -  Slow Bend
() -  Bracketed numbers are the note you bend up to
h  -  Hammer On
p  -  Pull Off
r  -  Return
/  -  Slide Up
\  -  Slide Down
d  -  Strum Down
u  -  Strum Up
PM -  Palm Mute
<> -  Natural Harmonics
^  -  Vibrato


[INTRO] - [MATTHEW]

e |---12--12--12------12---12--12--12------12---12--12--12------12---12--12--12------12-|
B |-13--13--12--12--12---13--13--12--12--12---13--13--12--12--12---13--13--12--12--12---|
G |-------------------------------------------------------------------------------------|
D |-------------------------------------------------------------------------------------|
A |-------------------------------------------------------------------------------------|
E |-------------------------------------------------------------------------------------|

   ---12--12--12------12---12--12--12------12---12--12--12------12---12--12--12------12|
   -13--13--12--12--12---13--13--12--12--12---13--13--12--12--12---13--13--12--12--12--|
   ------------------------------------------------------------------------------------|
   ------------------------------------------------------------------------------------|
   ------------------------------------------------------------------------------------|
   ------------------------------------------------------------------------------------|


        - [CALEB] @ 00:09

    C         Cadd9     C         Cadd9     Am7       A7sus     Am7       A7sus
e |-0---0-00--0---0-00--0---0-00--0---0-00--0---0-00--0---0-00--0---0-00--0---0-00-----|
B |-1---1-11--3b--3-33--1---1-11--3b--3-33--1---1-11--3b--3-33--1---1-11--3b--3-33-----|
G |-0---0-00--0---0-00--0---0-00--0---0-00--0---0-00--0---0-00--0---0-00--0---0-00-----|
D |-2---2-22--2---2-22--2---2-22--2---2-22--2---2-22--2---2-22--2---2-22--2---2-22-----|
A |-3---3-33--3---3-33--3---3-33--3---3-33--0---0-00--0---0-00--0---0-00--0---0-00-----|
E |------------------------------------------------------------------------------------|

[VERSE 1] - [CALEB]

    C         Cadd9     C         Cadd9     Am7       A7sus     Am7       A7sus
e |-0---0-00--0---0-00--0---0-00--0---0-00--0---0-00--0---0-00--0---0-00--0---0-00-----|
B |-1---1-11--3b--3-33--1---1-11--3b--3-33--1---1-11--3b--3-33--1---1-11--3b--3-33-----|
G |-0---0-00--0---0-00--0---0-00--0---0-00--0---0-00--0---0-00--0---0-00--0---0-00-----|
D |-2---2-22--2---2-22--2---2-22--2---2-22--2---2-22--2---2-22--2---2-22--2---2-22-----|
A |-3---3-33--3---3-33--3---3-33--3---3-33--0---0-00--0---0-00--0---0-00--0---0-00-----|
E |------------------------------------------------------------------------------------|

    C         Cadd9     C         Cadd9     Am7       A7sus     Am7       A7sus
   -0---0-00--0---0-00--0---0-00--0---0-00--0---0-00--0---0-00--0---0-00--0---0-00-----|
   -1---1-11--3b--3-33--1---1-11--3b--3-33--1---1-11--3b--3-33--1---1-11--3b--3-33-----|
   -0---0-00--0---0-00--0---0-00--0---0-00--0---0-00--0---0-00--0---0-00--0---0-00-----|
   -2---2-22--2---2-22--2---2-22--2---2-22--2---2-22--2---2-22--2---2-22--2---2-22-----|
   -3---3-33--3---3-33--3---3-33--3---3-33--0---0-00--0---0-00--0---0-00--0---0-00-----|
   ------------------------------------------------------------------------------------|

    C         Cadd9     C         Cadd9     Am7       A7sus     Am7       A7sus
   -0---0-00--0---0-00--0---0-00--0---0-00--0---0-00--0---0-00--0---0-00--0---0-00-----|
   -1---1-11--3b--3-33--1---1-11--3b--3-33--1---1-11--3b--3-33--1---1-11--3b--3-33-----|
   -0---0-00--0---0-00--0---0-00--0---0-00--0---0-00--0---0-00--0---0-00--0---0-00-----|
   -2---2-22--2---2-22--2---2-22--2---2-22--2---2-22--2---2-22--2---2-22--2---2-22-----|
   -3---3-33--3---3-33--3---3-33--3---3-33--0---0-00--0---0-00--0---0-00--0---0-00-----|
   ------------------------------------------------------------------------------------|

    C         Cadd9     C         Cadd9     Am7       A7sus     Am7       A7sus
   -0---0-00--0---0-00--0---0-00--0---0-00--0---0-00--0---0-00--0---0-00--0---0-00-----|
   -1---1-11--3b--3-33--1---1-11--3b--3-33--1---1-11--3b--3-33--1---1-11--3b--3-33-----|
   -0---0-00--0---0-00--0---0-00--0---0-00--0---0-00--0---0-00--0---0-00--0---0-00-----|
   -2---2-22--2---2-22--2---2-22--2---2-22--2---2-22--2---2-22--2---2-22--2---2-22-----|
   -3---3-33--3---3-33--3---3-33--3---3-33--0---0-00--0---0-00--0---0-00--0---0-00-----|
   ------------------------------------------------------------------------------------|


        - [MATTHEW] @ 00:22, 00:30, 00:39. Then this----- @ 00:47

e |---------------------------0--------------------------------------------------------|
B |-13-12--------------------11/13------------------------13p12--12--------------------|
G |-------14-12------------------------------------------------14--14----12------------|
D |---------------14-12-10-9------------------------------------------------14-12-10-9-|
A |------------------------------------------------------------------------------------|
E |------------------------------------------------------------------------------------|

[CHORUS] - [CALEB]

"...I'm passed out in your garden,"              "...I'm in I can't get off,"
        C6/9                                             D7
e |------------------------------------------------------2-----------------------------|
B |-----1------------------------------------------------1-----------------------------|
G |-----2------------------------------------------------2-----------------------------|
D |-----0------------------------------------------------0-----------------------------|
A |-----3------------------------------------------------------------------------------|
E |------------------------------------------------------------------------------------|

"...so.............................soft."
     G
   --3--33-33--3--33-33--3--33-33--3--33-33--------------------------------------------|
   --0--00-00--0--00-00--0--00-00--0--00-00--------------------------------------------|
   --0--00-00--0--00-00--0--00-00--0--00-00--------------------------------------------|
   --0--00-00--0--00-00--0--00-00--0--00-00--------------------------------------------|
   --2--22-22--2--22-22--2--22-22--2--22-22--------------------------------------------|
   --3--33-33--3--33-33--3--33-33--3--33-33--------------------------------------------|

"...I'd pop myself in your body,"                "...I'd come into your party but"
        C6/9                                             D7
   ------------------------------------------------------2-----------------------------|
   -----1------------------------------------------------1-----------------------------|
   -----2------------------------------------------------2-----------------------------|
   -----0------------------------------------------------0-----------------------------|
   -----3------------------------------------------------------------------------------|
   ------------------------------------------------------------------------------------|

                            "...I'm soft."
     G
   --3--33-33--3--33-33--3--33-33--3--33-33--------------------------------------------|
   --0--00-00--0--00-00--0--00-00--0--00-00--------------------------------------------|
   --0--00-00--0--00-00--0--00-00--0--00-00--------------------------------------------|
   --0--00-00--0--00-00--0--00-00--0--00-00--------------------------------------------|
   --2--22-22--2--22-22--2--22-22--2--22-22--------------------------------------------|
   --3--33-33--3--33-33--3--33-33--3--33-33--------------------------------------------|


         - [MATTHEW]


"...I'm passed out in your garden,"              "...I'm in I can't get off,"

e |------------------------------------------------------------------------------------|
B |------------------------------------------------------------------------------------|
G |-----5------------------------------------------------7-----------------------------|
D |-----X------------------------------------------------X-----------------------------|
A |-----3------------------------------------------------5-----------------------------|
E |------------------------------------------------------------------------------------|

"...so.............................soft."
     E   F     G     F     E   D   C   B
   ------------------------------------------------------------------------------------|
   ------------------------------------------------------------------------------------|
   --9-9-10-10-12-12-10-10-9-9-7-7-5-5-4-4---------------------------------------------|
   --X-X--X--X--X--X--X--X-X-X-X-X-X-X-X-X---------------------------------------------|
   --7-7--8--8-10-10--8--8-7-7-5-5-3-3-2-2---------------------------------------------|
   ------------------------------------------------------------------------------------|

"...I'd pop myself in your body,"                "...I'd come into your party but"
        C6/9                                             D7
   ------------------------------------------------------------------------------------|
   ------------------------------------------------------------------------------------|
   -----5------------------------------------------------7-----------------------------|
   -----X------------------------------------------------X-----------------------------|
   -----3------------------------------------------------5-----------------------------|
   ------------------------------------------------------------------------------------|

                             "...I'm soft."
     E   F     G     F     E   D   C   B
   ------------------------------------------------------------------------------------|
   ------------------------------------------------------------------------------------|
   --9-9-10-10-12-12-10-10-9-9-7-7-5-5-4-4---------------------------------------------|
   --X-X--X--X--X--X--X--X-X-X-X-X-X-X-X-X---------------------------------------------|
   --7-7--8--8-10-10--8--8-7-7-5-5-3-3-2-2---------------------------------------------|
   ------------------------------------------------------------------------------------|

[LINK] - [CALEB]

    C         Cadd9     C         Cadd9     Am7       A7sus     Am7       A7sus
e |-0---0-00--0---0-00--0---0-00--0---0-00--0---0-00--0---0-00--0---0-00--0---0-00-----|
B |-1---1-11--3b--3-33--1---1-11--3b--3-33--1---1-11--3b--3-33--1---1-11--3b--3-33-----|
G |-0---0-00--0---0-00--0---0-00--0---0-00--0---0-00--0---0-00--0---0-00--0---0-00-----|
D |-2---2-22--2---2-22--2---2-22--2---2-22--2---2-22--2---2-22--2---2-22--2---2-22-----|
A |-3---3-33--3---3-33--3---3-33--3---3-33--0---0-00--0---0-00--0---0-00--0---0-00-----|
E |------------------------------------------------------------------------------------|


       - [MATTHEW]

e |---12--12--12------12---12--12--12------12---12--12--12------12---12--12--12------12-|
B |-13--13--12--12--12---13--13--12--12--12---13--13--12--12--12---13--13--12--12--12---|
G |-------------------------------------------------------------------------------------|
D |-------------------------------------------------------------------------------------|
A |-------------------------------------------------------------------------------------|
E |-------------------------------------------------------------------------------------|

[VERSE 2] - [CALEB]

    C         Cadd9     C         Cadd9     Am7       A7sus     Am7       A7sus
e |-0---0-00--0---0-00--0---0-00--0---0-00--0---0-00--0---0-00--0---0-00--0---0-00-----|
B |-1---1-11--3b--3-33--1---1-11--3b--3-33--1---1-11--3b--3-33--1---1-11--3b--3-33-----|
G |-0---0-00--0---0-00--0---0-00--0---0-00--0---0-00--0---0-00--0---0-00--0---0-00-----|
D |-2---2-22--2---2-22--2---2-22--2---2-22--2---2-22--2---2-22--2---2-22--2---2-22-----|
A |-3---3-33--3---3-33--3---3-33--3---3-33--0---0-00--0---0-00--0---0-00--0---0-00-----|
E |------------------------------------------------------------------------------------|

    C         Cadd9     C         Cadd9     Am7       A7sus     Am7       A7sus
   -0---0-00--0---0-00--0---0-00--0---0-00--0---0-00--0---0-00--0---0-00--0---0-00-----|
   -1---1-11--3b--3-33--1---1-11--3b--3-33--1---1-11--3b--3-33--1---1-11--3b--3-33-----|
   -0---0-00--0---0-00--0---0-00--0---0-00--0---0-00--0---0-00--0---0-00--0---0-00-----|
   -2---2-22--2---2-22--2---2-22--2---2-22--2---2-22--2---2-22--2---2-22--2---2-22-----|
   -3---3-33--3---3-33--3---3-33--3---3-33--0---0-00--0---0-00--0---0-00--0---0-00-----|
   ------------------------------------------------------------------------------------|

    C         Cadd9     C         Cadd9     Am7       A7sus     Am7       A7sus
   -0---0-00--0---0-00--0---0-00--0---0-00--0---0-00--0---0-00--0---0-00--0---0-00-----|
   -1---1-11--3b--3-33--1---1-11--3b--3-33--1---1-11--3b--3-33--1---1-11--3b--3-33-----|
   -0---0-00--0---0-00--0---0-00--0---0-00--0---0-00--0---0-00--0---0-00--0---0-00-----|
   -2---2-22--2---2-22--2---2-22--2---2-22--2---2-22--2---2-22--2---2-22--2---2-22-----|
   -3---3-33--3---3-33--3---3-33--3---3-33--0---0-00--0---0-00--0---0-00--0---0-00-----|
   ------------------------------------------------------------------------------------|


        - [MATTHEW] @ 01:21, 01:30. Then this------------ @ 01:38

e |---------------------------0--------------------------------------------------------|
B |-13-12--------------------11/13------------------------13p12--12--------------------|
G |-------14-12------------------------------------------------14--14----12------------|
D |---------------14-12-11-9------------------------------------------------14-12-10-9-|
A |------------------------------------------------------------------------------------|
E |------------------------------------------------------------------------------------|

[CHORUS] - [CALEB]
[ Tab from: http://www.guitaretab.com/k/kings-of-leon/133424.html ]
"...I'm passed out in your garden,"              "...I'm in I can't get off,"
        C6/9                                             D7
e |------------------------------------------------------2-----------------------------|
B |-----1------------------------------------------------1-----------------------------|
G |-----2------------------------------------------------2-----------------------------|
D |-----0------------------------------------------------0-----------------------------|
A |-----3------------------------------------------------------------------------------|
E |------------------------------------------------------------------------------------|

"...so.............................soft."
     G
   --3--33-33--3--33-33--3--33-33--3--33-33--------------------------------------------|
   --0--00-00--0--00-00--0--00-00--0--00-00--------------------------------------------|
   --0--00-00--0--00-00--0--00-00--0--00-00--------------------------------------------|
   --0--00-00--0--00-00--0--00-00--0--00-00--------------------------------------------|
   --2--22-22--2--22-22--2--22-22--2--22-22--------------------------------------------|
   --3--33-33--3--33-33--3--33-33--3--33-33--------------------------------------------|

"...I'd pop myself in your body,"                "...I'd come into your party but"
        C6/9                                             D7
   ------------------------------------------------------2-----------------------------|
   -----1------------------------------------------------1-----------------------------|
   -----2------------------------------------------------2-----------------------------|
   -----0------------------------------------------------0-----------------------------|
   -----3------------------------------------------------------------------------------|
   ------------------------------------------------------------------------------------|

                            "...I'm soft." "...but........................I'm so-o-oft.
     G                                          G
   --3--33-33--3--33-33--3--33-33--3--33-33-----3--33-33--3--33-33--3--33-33--3--33-33-|
   --0--00-00--0--00-00--0--00-00--0--00-00-----0--00-00--0--00-00--0--00-00--0--00-00-|
   --0--00-00--0--00-00--0--00-00--0--00-00-----0--00-00--0--00-00--0--00-00--0--00-00-|
   --0--00-00--0--00-00--0--00-00--0--00-00-----0--00-00--0--00-00--0--00-00--0--00-00-|
   --2--22-22--2--22-22--2--22-22--2--22-22-----2--22-22--2--22-22--2--22-22--2--22-22-|
   --3--33-33--3--33-33--3--33-33--3--33-33-----3--33-33--3--33-33--3--33-33--3--33-33-|


         - [MATTHEW]


"...I'm passed out in your garden,"              "...I'm in I can't get off,"

e |------------------------------------------------------------------------------------|
B |------------------------------------------------------------------------------------|
G |-----5------------------------------------------------7-----------------------------|
D |-----X------------------------------------------------X-----------------------------|
A |-----3------------------------------------------------5-----------------------------|
E |------------------------------------------------------------------------------------|

"...so.............................soft."
     E   F     G     F     E   D   C   B
   ------------------------------------------------------------------------------------|
   ------------------------------------------------------------------------------------|
   --9-9-10-10-12-12-10-10-9-9-7-7-5-5-4-4---------------------------------------------|
   --X-X--X--X--X--X--X--X-X-X-X-X-X-X-X-X---------------------------------------------|
   --7-7--8--8-10-10--8--8-7-7-5-5-3-3-2-2---------------------------------------------|
   ------------------------------------------------------------------------------------|

"...I'd pop myself in your body,"                "...I'd come into your party but"
        C6/9                                             D7
   ------------------------------------------------------------------------------------|
   ------------------------------------------------------------------------------------|
   -----5------------------------------------------------7-----------------------------|
   -----X------------------------------------------------X-----------------------------|
   -----3------------------------------------------------5-----------------------------|
   ------------------------------------------------------------------------------------|

                             "...I'm soft." "...but.......................I'm so-o-oft.
     E   F     G     F     E   D   C   B         E   F     G     F     E   D   C   B
   ------------------------------------------------------------------------------------|
   ------------------------------------------------------------------------------------|
   --9-9-10-10-12-12-10-10-9-9-7-7-5-5-4-4-------9-9-10-10-12-12-10-10-9-9-7-7-5-5-4-4-|
   --X-X--X--X--X--X--X--X-X-X-X-X-X-X-X-X-------X-X--X--X--X--X--X--X-X-X-X-X-X-X-X-X-|
   --7-7--8--8-10-10--8--8-7-7-5-5-3-3-2-2-------7-7--8--8-10-10--8--8-7-7-5-5-3-3-2-2-|
   ------------------------------------------------------------------------------------|

[MIDDLE 8] - [CALEB] (Note: the chord stabs are played on the "off" beats.)

               | 1 & 2 & 3 & 4 & | 1 & 2 & 3 & 4 & | 1 & 2 & 3 & 4 & | 1 & 2 & 3 & 4 &
               |                 |                 |                 |
               |   C*            |   E7            |   Am            |   Am
             e |-----------------|-----------------|-----------------|-----------------|
             B |---1---1---1---1-|---3---3---3---3-|---1---1---1---1-|---1---1---1---1-|
             G |---0---0---0---0-|---1---1---1---1-|---2---2---2---2-|---2---2---2---2-|
             D |---2---2---2---2-|---2---2---2---2-|---2---2---2---2-|---2---2---2---2-|
             A |---3---3---3---3-|---2---2---2---2-|---0---0---0---0-|---0---0---0---0-|
             E |-----------------|---0---0---0---0-|-----------------|-----------------|

                 1 & 2 & 3 & 4 & | 1 & 2 & 3 & 4 & | 1 & 2 & 3 & 4 & | 1 & 2 & 3 & 4 & |
                                 |                 |                 |                 |
                   C*            |   E7            |   Am            |   Am            |
                -----------------|-----------------|-----------------|-----------------|
                ---1---1---1---1-|---3---3---3---3-|---1---1---1---1-|---1---1---1---1-|
                ---0---0---0---0-|---1---1---1---1-|---2---2---2---2-|---2---2---2---2-|
                ---2---2---2---2-|---2---2---2---2-|---2---2---2---2-|---2---2---2---2-|
                ---3---3---3---3-|---2---2---2---2-|---0---0---0---0-|---0---0---0---0-|
                -----------------|---0---0---0---0-|-----------------|-----------------|


           - [MATTHEW]

e |------------------------------------------------------------------------------------|
B |------------------------------------------------------------------------------------|
G |------------------------------------------------------------------------------------|
D |------------------------------------------------------------------------------------|
A |-3-3-3-3-3-3-3-3--------------------------------------------------------------------|
E |-----------------0-0-0-4-4-4-4-4-5-5-5-5-3-3-3-3-1-1-1-1-3-3-3-3--------------------|

   ------------------------------------------------------------------------------------|
   ------------------------------------------------------------------------------------|
   ------------------------------------------------------------------------------------|
   ------------------------------------------------------------------------------------|
   -3-3-3-3-3-3-3-3--------------------------------------------------------------------|
   -----------------0-0-0-4-4-4-4-4-5-5-5-5-3-3-3-3-1-1-1-1-3-3-3-3--------------------|

[OUTRO] - [CALEB] (Note: the chord stabs are played on the "on" beats.)

               | 1 & 2 & 3 & 4 & | 1 & 2 & 3 & 4 & | 1 & 2 & 3 & 4 & | 1 & 2 & 3 & 4 &
               |                 |                 |                 |
               | C*              | E7              | Am              | Am
             e |-----------------|-----------------|-----------------|-----------------|
             B |-1---1---1---1---|-3---3---3---3---|-1---1---1---1---|-1---1---1---1---|
             G |-0---0---0---0---|-1---1---1---1---|-2---2---2---2---|-2---2---2---2---|
             D |-2---2---2---2---|-2---2---2---2---|-2---2---2---2---|-2---2---2---2---|
             A |-3---3---3---3---|-2---2---2---2---|-0---0---0---0---|-0---0---0---0---|
             E |-----------------|-0---0---0---0---|-----------------|-----------------|

                 1 & 2 & 3 & 4 & | 1 & 2 & 3 & 4 & | 1 & 2 & 3 & 4 & | 1 & 2 & 3 & 4 &
                                 |                 |                 |
                 C*              | E7              | Am              | Am
                -----------------|-----------------|-----------------|-----------------|
                -1---1---1---1---|-3---3---3---3---|-1---1---1---1---|-1---1---1---1---|
                -0---0---0---0---|-1---1---1---1---|-2---2---2---2---|-2---2---2---2---|
                -2---2---2---2---|-2---2---2---2---|-2---2---2---2---|-2---2---2---2---|
                -3---3---3---3---|-2---2---2---2---|-0---0---0---0---|-0---0---0---0---|
                -----------------|-0---0---0---0---|-----------------|-----------------|

    C                 Cadd9             Am7               Am7
   -0--00-00--000-00--0--00-00--000-00--0--00-00--000-00--0--00-00--000-00-------------|
   -1--11-11--111-11--3--33-33--333-33--1--11-11--111-11--1--11-11--111-11-------------|
   -0--00-00--000-00--0--00-00--000-00--0--00-00--000-00--0--00-00--000-00-------------|
   -2--22-22--222-22--2--22-22--222-22--2--22-22--222-22--2--22-22--222-22-------------|
   -3--33-33--333-33--3--33-33--333-33--0--00-00--000-00--0--00-00--000-00-------------|
   ------------------------------------------------------------------------------------|

    C                 Cadd9             Am7               Am7       A7sus
   -0--00-00--000-00--0--00-00--000-00--0--00-00--000-00--0--00-00--0------------------|
   -1--11-11--111-11--3--33-33--333-33--1--11-11--111-11--1--11-11--3------------------|
   -0--00-00--000-00--0--00-00--000-00--0--00-00--000-00--0--00-00--0--LET RING--------|
   -2--22-22--222-22--2--22-22--222-22--2--22-22--222-22--2--22-22--2------------------|
   -3--33-33--333-33--3--33-33--333-33--0--00-00--000-00--0--00-00--0------------------|
   ------------------------------------------------------------------------------------|


        - [MATTHEW] (Note: the chord stabs are played on the "off" beats.)

               | 1 & 2 & 3 & 4 & | 1 & 2 & 3 & 4 & | 1 & 2 & 3 & 4 & | 1 & 2 & 3 & 4 &
               |                 |                 |                 |
               |   C             |   E      G#     |  A       G      |  F       G
             e |-----------------|-----------------|-----------------|-----------------|
             B |-----------------|-----------------|-----------------|-----------------|
             G |---5---5---5---5-|---9---9--13--13-|--14--14--12--12-|--10--10--12--12-|
             D |---X---X---X---X-|---X---X---X---X-|---X---X---X---X-|---X---X---X---X-|
             A |---3---3---3---3-|---7---7--11--11-|--12--12--10--10-|---8---8--10--10-|
             E |-----------------|-----------------|-----------------|-----------------|

                 1 & 2 & 3 & 4 & | 1 & 2 & 3 & 4 & | 1 & 2 & 3 & 4 & | 1 & 2 & 3 & 4 & |
                                 |                 |                 |                 |
                   C             |   E      G#     |  A       G      |  F       G      |
                -----------------|-----------------|-----------------|-----------------|
                -----------------|-----------------|-----------------|-----------------|
                ---5---5---5---5-|---9---9--13--13-|--14--14--12--12-|--10--10--12---\-|
                ---X---X---X---X-|---X---X---X---X-|---X---X---X---X-|---X---X---X-----|
                ---3---3---3---3-|---7---7--11--11-|--12--12--10--10-|---8---8--10---\-|
                -----------------|-----------------|-----------------|-----------------|

    C                       E           G#                      A
e |--------------------------------------------------------------------------------------|
B |--------------------------------------------------------------------------------------|
G |-555555555555555555555555999999999999131313131313131313131313141414141414141414141414-
D |-XXXXXXXXXXXXXXXXXXXXXXXXXXXXXXXXXXXX-X-X-X-X-X-X-X-X-X-X-X-X-X-X-X-X-X-X-X-X-X-X-X-X-
A |-333333333333333333333333777777777777111111111111111111111111121212121212121212121212-
E |--------------------------------------------------------------------------------------

    G                       F                       G
   --------------------------------------------------------------------------------------|
   --------------------------------------------------------------------------------------|
   -121212121212121212121212101010101010101010101010121212121212121212121212-------------|
   --X-X-X-X-X-X-X-X-X-X-X-X-X-X-X-X-X-X-X-X-X-X-X-X-X-X-X-X-X-X-X-X-X-X-X-X-------------|
   -101010101010101010101010-8-8-8-8-8-8-8-8-8-8-8-8101010101010101010101010-------------|
   --------------------------------------------------------------------------------------|

    C                       E           G#                      A
   --------------------------------------------------------------------------------------|
   --------------------------------------------------------------------------------------|
   -555555555555555555555555999999999999131313131313131313131313141414141414141414141414-
   -XXXXXXXXXXXXXXXXXXXXXXXXXXXXXXXXXXXX-X-X-X-X-X-X-X-X-X-X-X-X-X-X-X-X-X-X-X-X-X-X-X-X-
   -333333333333333333333333777777777777111111111111111111111111121212121212121212121212-
   --------------------------------------------------------------------------------------

    G                       F                       G    F#  F  E  Eb D  C# C
   --------------------------------------------------------------------------------------|
   --------------------------------------------------------------------------------------|
   -12121212121212121212121210101010101010101010101012-\11-\10-\9-\8-\7-\6-\5------------|
   --X-X-X-X-X-X-X-X-X-X-X-X-X-X-X-X-X-X-X-X-X-X-X-X-X---X---X--X--X--X--X--X------------|
   -101010101010101010101010-8-8-8-8-8-8-8-8-8-8-8-810-\-9-\-8-\7-\6-\5-\4-\3------------|
   --------------------------------------------------------------------------------------|
Related for Soft tab