Guitaretab - guitar tabs
Song name
# A B C D E F G H I J K L M N O P Q R S T U V W X Y Z

Kings Of Leon - 17 tab

-----------------------------------------------------------------------------
			        17 - Kings Of Leon
-----------------------------------------------------------------------------

Tabbed by:XxGuitarZer0xX

Email:Spongebobs400s@hotmail.com

Tuning:Standard




Intro - part 1
e|------------------|
B|------------------|
G|-5555555555555555-|
D|-5555555555555555-|
A|-3333333333333333-|
E|------------------|
PM ****************




Intro - part 2 - Guitar 1
e|------------------------------------------------|
B|------------------------------------------------|
G|-5555-4444-2222------7777-11111111-12-12-12-12--|
D|-5555-5555-2222-5555-7777-11111111-12-12-12-12--| Repeat once more
A|-3333-2222-0000-5555-5555-9-9-9-9--10-10-10-10--|
E|----------------3333----------------------------|

Intro - part 2 - Guitar 2 (this is the piano or bells in the back ground
e|-8~-7h8p7------------------|
B|----------10-8~-3-7b8r7-8~-|
G|---------------------------|
D|---------------------------| Repeat once more
A|---------------------------|
E|---------------------------|




Verse - Guitar 1
e|-----------------------------------|
B|-----------------------------------|
G|-10b12~~~~~~~~-5555-4444-2222-0000-|
D|-----------------------------------|  Repeat three more times
A|-----------------------------------|
E|-----------------------------------|

Verse - Guitar 2
e|-----------------------------------------------|
B|-----------------------------------------------|
G|-10-8-10b12~--10-8-10b12~--5555-4444-2222------|
D|-----------8------------8--5555-5555-2222-5555-| Repeat three more times
A|---------------------------3333-2222-0000-5555-|
E|------------------------------------------3333-|
For this part keep holding the 10b12 but add the 8





Chorus - Guitar 1
e|-------------------------------------|
B|-------------------------------------|
G|-55555555-22222222-77777777----------|
D|-55555555-22222222-77777777-55555555-| Repeat two times 
A|-33333333-00000000-55555555-55555555-|
E|----------------------------33333333-|
PM ******** ******** ******** ********

Then Play
e|-------------------------------|
B|-------------------------------|
G|-55555555-22222222-77777777----|
D|-55555555-22222222-77777777-5~-|
A|-33333333-00000000-55555555-5~-|
E|----------------------------3~-|
PM ******** ******** ********

[ Tab from: http://www.guitaretab.com/k/kings-of-leon/202539.html ]
Chorus - Guitar 2
e|-0~-0~-2~-3~-|
B|-1~-0~-3~-3~-|
G|-0~-2~-2~-0~-|
D|-2~-2~-0~-0~-| Repeats through out the whole chorus
A|-3~-0~----2~-|
E|----------3~-|





Verse - Guitar 1
e|-----------------------------------|
B|-----------------------------------|
G|-10b12~~~~~~~~-5555-4444-2222-0000-|
D|-----------------------------------|  Repeat three more times
A|-----------------------------------|
E|-----------------------------------|

Verse - Guitar 2
e|-----------------------------------------------|
B|-----------------------------------------------|
G|-10-8-10b12~--10-8-10b12~--5555-4444-2222------|
D|-----------8------------8--5555-5555-2222-5555-| Repeat three more times
A|---------------------------3333-2222-0000-5555-|
E|------------------------------------------3333-|
For this part keep holding the 10b12 but add the 8




Chorus - Guitar 1
e|-------------------------------------|
B|-------------------------------------|
G|-55555555-22222222-77777777----------|
D|-55555555-22222222-77777777-55555555-| Repeat two times 
A|-33333333-00000000-55555555-55555555-|
E|----------------------------33333333-|
PM ******** ******** ******** ********

Then Play
e|-------------------------------|
B|-------------------------------|
G|-55555555-22222222-77777777----|
D|-55555555-22222222-77777777-5~-|
A|-33333333-00000000-55555555-5~-|
E|----------------------------3~-|
PM ******** ******** ********





Outro - part 2 - Guitar 1
e|------------------------------------------------|
B|------------------------------------------------|
G|-5555-4444-2222------7777-11111111-12-12-12-12--|
D|-5555-5555-2222-5555-7777-11111111-12-12-12-12--| Repeat until end of song
A|-3333-2222-0000-5555-5555-9-9-9-9--10-10-10-10--|
E|----------------3333----------------------------|

Outro - part 2 - Guitar 2 (this is the piano or bells in the back ground
e|-8~-7h8p7------------------|
B|----------10-8~-3-7b8r7-8~-|
G|---------------------------|
D|---------------------------| Repeat until end of song
A|---------------------------|
E|---------------------------|

Outro Solo - (All of these are speed picks. Parentheses shows # of picks
e|---------------------------------------|
B|-17(20)-19(8)-20(8)--------------------|
G|--------------------16(20)-14(8)-12(8)-|
D|---------------------------------------| Repeat until end of song
A|---------------------------------------|
E|---------------------------------------|



!!!  - - - end on the 14 of the G - - - !!!
|----|
|----|
|-14-|
|----|
|----|
|----|
Related for 17 tab
17 chords by Kings Of Leon