Song name
# A B C D E F G H I J K L M N O P Q R S T U V W X Y Z

Kings Of Leon - Sex On Fire tab

Help us improve GuitareTab! Take a short survey!
---------------------------------------------------------------------------
	               Sex on Fire - Kings Of Leon
---------------------------------------------------------------------------

I got sick of seeing pathetic looking tabs of this awesome song so here 
you go, play it properly now!  :-)


Intro:

Gtr.2
e|----------------------------------------|
B|----------------------------------------|
G|----------------------------------------|
D|----------------------------------------|
A|--16-14-14-14--x4------12-11-11-11--x4--|
E|-0--0--0--0-----------9--9--9--9--------|

Gtr.1
e|-------------------------------------------------------------------------|
B|-------------------------------------------------------------------------|
G|--12-12-12-12------9-12-12-12-12-12-12-12------9--9--9--9----------------|
D|--13-13-13-13-x2- -9-13-13-13-13-13-13-13------9--9--9--9-x4-------------|
A|-------------------------------------------------------------------------|
E|-------------------------------------------------------------------------|


Verse:

Gtr.2
e|----------------------------------------|
B|----------------------------------------|
G|----------------------------------------|
D|----------------------------------------|
A|--16-14-14-14--x4------12-11-11-11--x4--|
E|-0--0--0--0-----------9--9--9--9--------|

Gtr.1
e|----------------------------------------|
B|----------------4-----------------------|
G|----------------------------------------|
D|----4--7--6--4-----7--6--4--------------|
A|----4--4--4--4-----4--4--4--------------|
E|----------------------------------------|
Pm    *  *  *  *     *  *  *
	Let high string note ring


Chorus:

Gtr.1
e|--4-4-4-4--------------------11--11--11--11-5-5-5-5----------------------|
B|-5-5-5-5---12--12--12--12--12--12--12--12--7-7-7-7-----------------------|
G|---------13--13--13--13--------------------------------------------------|
D|-------------------------------------------------------------------------|
A|-------------------------------------------------------------------------|
E|-------------------------------------------------------------------------|

Gtr.2
e|-------------------------------------------------------------------------|
B|-------------------------------------------------------------------------|
G|-9-9-9-9-9-9-9-13--9-9-9-9-9-9-9-13--------------------------------------|
D|-9-9-9-9-9-9-9-13--9-9-9-9-9-9-9-13--------------------------------------|
A|-7-7-7-7-7-7-7-11--7-7-7-7-7-7-7-11--------------------------------------|
E|-------------------------------------------------------------------------|


Gtr.1
e|----11-----11--------11--------------11-----11--------0------------------|
B|----14b16--14b16-----14--------------14b16--14b16-----9------------------|
G|-------------------------------------------------------------------------|
D|-------------------------------------------------------------------------|
A|-------------------------------------------------------------------------|
E|-------------------------------------------------------------------------|

Gtr.2
e|-------------------------------------------------------------------------|
B|-------------------------------------------------------------------------|
G|-------------------------------------------------------------------------|
D|-11-11-11-11-11-11-11-11--7-7-7-7-7-7-7-7--------------------------------|
A|-11-11-11-11-11-11-11-11--7-7-7-7-7-7-7-7--------------------------------|
E|-9--9--9--9--9--9--9--9---5-5-5-5-5-5-5-5--------------------------------|
                                          ^      11   
                                          |      11    
                                          play a 9  here when repeating 
                                          the chorus again

Bridge:

Gtr.2
e|-------------------------------------------------------------------------|
B|-------------------------------------------------------------------------|
G|-9-9----9-9----9-9----9-9--13-13-----------------------------------------|
D|-9-9----9-9----9-9----9-9--13-13--11-11---11-11---7-7----7-7--11-11------|
A|-7-7----7-7----7-7----7-7--11-11--11-11---11-11---7-7----7-7--11-11------|
E|----------------------------------9--9----9--9----5-5----5-5--9--9-------|

Gtr.1 (comes in on last bar)
e|----11-----11--------11--------------11-----11--------0------------------|
B|----14b16--14b16-----14--------------14b16--14b16-----9------------------|
G|-------------------------------------------------------------------------|
D|-------------------------------------------------------------------------|
A|-------------------------------------------------------------------------|
E|-------------------------------------------------------------------------|

Gtr.2
e|-------------------------------------------------------------------------|
B|-------------------------------------------------------------------------|
G|-9-9----9-9----9-9----9-9--13-13-----------------------------------------|
D|-9-9----9-9----9-9----9-9--13-13--11-11---11-11---7-7----7-7--11-11------|
A|-7-7----7-7----7-7----7-7--11-11--11-11---11-11---7-7----7-7--11-11------|
E|----------------------------------9--9----9--9----5-5----5-5--9--9-------|

Gtr.1
e|--4-4-4-4--------------------11--11--11--11-5-5-5-5----------------------|
B|-5-5-5-5---12--12--12--12--12--12--12--12--7-7-7-7-----------------------|
G|---------13--13--13--13--------------------------------------------------|
D|-------------------------------------------------------------------------|
A|-------------------------------------------------------------------------|
E|-------------------------------------------------------------------------|

e|----11-----11--------11--------------11-----11--------0------------------|
B|----14b16--14b16-----14--------------14b16--14b16-----9------------------|
G|-------------------------------------------------------------------------|
D|-------------------------------------------------------------------------|
A|-------------------------------------------------------------------------|
E|-------------------------------------------------------------------------|


Enjoy!

Nundies
Related for Sex On Fire tab