Kings Of Leon - Mi Amigo tab

saw the tab for this was incomplete.. had to learn the song thanks to the line "tells me 
got a big ol dick.."  hilarious

i wont do lyrics, because its all so simple.


INTRO
Barre D at 5 pick your way through. its easy.

D Esus4 F#m  -  F#m Esus4 D G

Verse

G (barre 3)  D (Barre 10)


PreChorus


A (lick below)  G

e|--------5-----------------|
B|---5h6--------------------|
G|--------------------------|
D|--------------------------|
A|--------------------------|
E|--------------------------|


Chorus (repeat as needed)

e|--------------------------|
B|---7-7--12-10-------------|
G|--------------------------|
D|--------------------------|
A|--------------------------|
E|--------------------------|

e|------------------10--------------------------|
B|----------10h12-------------------------------|
G|----9h11--------------------------------------|
D|----------------------------------------------|
A|----------------------------------------------|
E|----------------------------------------------|


Intro chords again

D Esus4 F#m  -  F#m Esus4 D G


repeat.


great album!!!  :D
Tap to rate this tab
 
# A B C D E F G H I J K L M N O P Q R S T U V W X Y Z