Guitaretab - guitar tabs
Song name
# A B C D E F G H I J K L M N O P Q R S T U V W X Y Z

Kings Of Leon - Knocked Up tab

Band - Kings of Leon
Song - Knocked Up
Album - Because of the Times

Standrd Tuning EADGBE

Any critisims welcome!


Bass Intro
G|--------------------------------|
D|--9-9x4---------1313--x4------|
A|-7-7------/----11--11-----------|
E|--------------------------------|

Intro

Guitar 1 (lots of reverb throughout)
e|--------|
B|-17~----|
G|--------| 0:00 - 0:05
D|--------|
A|--------|
E|--------|

Verse

e|-----19------|
B|-17----19----|
G|-------------| 0:27 - 0:55
D|-------------|
A|-------------|
E|-------------|

e|----19~------|
B|-17----------|
G|-------------|
D|-------------|
A|-------------|
E|-------------|


Guitar 2 (slight distortion and reverb)
e|-------------------------|
B|-------------------------|
G|-------------------------| x2
D|-------------------------|
A|----2-2--2--------4--4-4-|
E|-0------------0-0--------|

e|-------------------------|
B|-------------------------|
G|-------------------------| x2
D|-------------------------|
A|----2-2--2--------4--4-4-|
E|-4------------4-4--------|


Chorus

(Guitars 1 & 2, guitar 1 plays continuously and guitar 2 stops between each bar and PM's 
chord while hitting it)
e|----------------------|
B|-----5--5-5-5-5-5-5-5-|
G|-----6--6-6-6-6-6-6-6-| x2
D|-----6--6-6-6-6-6-6-6-|
A|-----4--4-4-4-4-4-4-4-|
E|----------------------|

e|----------------------|
B|----------------------|
G|-----3--3-3-3-3-3-3-3-| x2
D|-----4--4-4-4-4-4-4-4-|
A|-----4--4-4-4-4-4-4-4-|
E|-----2--2-2-2-2-2-2-2-|
[ Tab from: http://www.guitaretab.com/k/kings-of-leon/85468.html ]
Verse

Chorus

Bridge

Guitar 1
(sorry if this looks a bit confusing, just play it by ear and it sounds ok, ohh and 
of reverb)
e|-------12------12------7-------7------12-----12------------7-------7---|
B|--/-12------/12--12\-7--------7-7/-12-----/12--12\-7-7b-----7b-7-7b--7b|
G|-----------------------------------------------------------------------|
D|-----------------------------------------------------------------------|
A|-----------------------------------------------------------------------|
E|-----------------------------------------------------------------------|

e|-7/9---9/0--7-0-7/0--------12----7----7------|
B|-----5-----7------------/12----/7----7-7-7b--|
G|---------------------------------------------|
D|---------------------------------------------|
A|---------------------------------------------|
E|---------------------------------------------|


Guitar 2
e|-------------------------|
B|-------------------------|
G|-------------------------| x2
D|-------------------------|
A|----2-2--2--------4--4-4-|
E|-0------------0-0--------|

e|-------------------------|
B|-------------------------|
G|-------------------------| x2
D|-------------------------|
A|----2-2--2--------4--4-4-|
E|-4------------4-4--------|


Guitar 1 Verse every so often and then...
e|-12-12-----7-7-|
B|-12-12-----7-7-|
G|---------------| 5:00 - 5:20
D|---------------|
A|---------------|
E|---------------|

Pretty sure thats right however theres prob other ways to play it too, feel free to comment!
Related for Knocked Up tab