Song name
# A B C D E F G H I J K L M N O P Q R S T U V W X Y Z

Kingston Trio - Tom Dooley tab

E----------------------------|
A----------------------------|
D-0---0---2------------------|
G------------0---------------|
B----------------0--0--0-----|
E----------------------------|

E----------------------|
A----------------------|
D-0---0---2------------|
G------------0-2-------|
B----------------------|
E----------------------|

E----------------------------|
A----------------------------|
D-0---0---2------------------|
G------------0---------------|
B----------------0--2--2-----|
E----------------------------|

E--------------------------|
A--------------------------|
D-------------2------------|
G-2--2--2--0---------------|
B----------------0---------|
E--------------------------|

E--------------------------|
A--------------------------|
D-2------------------------|
G----0-2---2--0-0-0--------|
B--------0----------3-3-3--|
E--------------------------|

E----------------------------------|
A----------------------------------|
D---------0-0----------------------|
G------2---------0-2--2--0-0-0-----|
B-3-0----------------0-------------|
E--------------0---------------3-3-|

E-----------------------------|
A-----------------------------|
D-----------------------------|
G-----------0-----0------0----|
B-3-------3-----3---3-3-3---2-|
E---2-2-0-----0---------------|

E--------------------------|
A--------------------------|
D--------------------------|
G-0-0----------------------|
B-----3-3-3---0-3-0-3------|
E-----------0--------------|

E----------------------------|
A----------------------------|
D----------------------------|
G-0-0-0-2---2-0-0-0----------|
B---------0----------0-3-3-0-|
E----------------------------|
Tap to rate this tab
# A B C D E F G H I J K L M N O P Q R S T U V W X Y Z