Song name
# A B C D E F G H I J K L M N O P Q R S T U V W X Y Z

Kira And The Kindred Spirits - Something To Do tab

Highlighted       Show chord diagrams
Kira and the Kindred Spirits - Something to do
Tabbed by Alexander Stęger



(Intro)

A, Asus4 x2

(Verse)
A                                              F
Waiting watching your eyes' brightness fading away
A                                            F#
leaving, losing your life's lesson lost in a day
Bm                                          G
Breathing breaking the wows only yours to betray
    A     E
all blown away


A                                           F
Mold me, meet me, unfold and defeat me I'm yours
A                                                 F#   
hold me and cheat me of all my aching heart can endure, yeah
Bm                                             G
Blissfully bleeding away and all of this to be sure
         A             E
that I'm so completely yours


(Pre-Chorus)
    C#m                    E
Now I'm not gonna wonder, I'm not gonna wait
C#m                     E
its ok if you can, but I'm not gonna take
     A      C#m
this broken promise
   F#             A  
of someone else's plate


(Chorus)
F#,F#,F#, G, G#, A

          B, B, B, C, C#, D 
Someone..

         F#, F#, F#,B, A, E            
someone like you

             B, B, B, C, C#, D
Someone like you.  
F#                   A
I've been loosing my mind yeah
B                        D
I have been waiting for you



(Verse)
           A       F
Ain't that right
A                                                 F        
Bluffing, denying can't blame you for trying your warning
A                                                           F#
joining the late dance of the faithless who's fearing the morning
Bm                                                        G
Freeing yourself you shall flee from the place you where born in
        A          E
I give up... you win



(Pre-chorus)
    C#m                   E
Now I'm not gonna wonder I'm not gonna wait
C#m                    E
its ok if you can but I'm not gonna take
       A      C#m
this broken promise
   F#             A  
of someone else's plate


(Chorus)
F#,F#,F#, G, G#, A

          B, B, B, C, C#, D 
Someone..

         F#, F#, F#,B, A, E            
someone like you
  
             B, B, B, C, C#, D
Someone like you.         oh       baby
F#                   A
I've been loosing my mind yeah
B                        D
I have been waiting for you

Come again.....oh baby


(Ending)

B, B, B, C, C#, D 

E, E, E, F, F# , G,

B, B, B, C, C#, D  

E, E, E, F, F#, G, 


Chords used in the chorus:

    F#    G     G#    A
|---2-----3-----4-----5---|
|---2-----3-----4-----5---|
|---3-----4-----5-----6---|  (someone...)
|---4-----5-----6-----7---|
|---4-----5-----6-----7---|
|---2-----3-----4-----5---|


    B     C     C#    D
|---2-----3-----4-----5---|
|---4-----5-----6-----7---|
|---4-----5-----6-----7---|  (someone like you...)
|---4-----5-----6-----7---|
|---2-----3-----4-----5---|
|---x-----x-----x-----x---|


    F#    B     A     E
|---2-----2-----0-----0---|
|---2-----4-----2-----0---|
|---3-----4-----2-----1---|  (someone like y-o-u...)
|---4-----4-----2-----2---|
|---4-----2-----0-----2---|
|---2-----x-----x-----0---|

    B     C     C#    D
|---2-----3-----4-----5---|
|---4-----5-----6-----7---|
|---4-----5-----6-----7---|  (oh baby...)
|---4-----5-----6-----7---|
|---2-----3-----4-----5---|
|---x-----x-----x-----x---|


Chords for the ending:

    B     C     C#    D       E     F     F#    G  
|---2-----3-----4-----5---|---7-----8-----9-----10---|
|---4-----5-----6-----7---|---9-----10----11----12---|
|---4-----5-----6-----7---|---9-----10----11----12---|   
|---4-----5-----6-----7---|---9-----10----11----12---|
|---2-----3-----4-----5---|---7-----8-----9-----10---|
|---x-----x-----x-----x---|---x-----x-----x-----x----|



I guess the chorus can be a little bit confusing... I'm sorry. If you listen
to the song you should be able to figure it out...I should probably also say,
that using barre chords is the easiest way to get through the chorus...Enjoy
Tap to rate this tab
# A B C D E F G H I J K L M N O P Q R S T U V W X Y Z