Song name
# A B C D E F G H I J K L M N O P Q R S T U V W X Y Z

Kirka - Hetki Lyo tab

===================     Tabulatuurit: Juha Alaspää
 HETKI LYÖ (Kirka)      --------------------------
===================     http://www.ykkoskitara.net
säv. R. Gottehrer
     J. Stroll             -Mestarit Areenalla-
san. Pertti Reponen        



Em     Em(maj7) Em7           Em6
Hetki lyö,      viime hetki lyö, 
Em                    Em7       Am         H7
kukaan aikaa lahjomaan ei käydä voi milloinkaan.


Säröriffi: (toistuu tietysti joka säkeistössä!)

                     Em          Em(maj7)    Em7       Em6
e|-------------------------------------------------------------|
H|-------------------------------------------------------------|
G|-------------------------------------------------------------|
D|-------------------2~----------1~----------0~----------------|
A|--2-5--2-5--------------------------------------------4~-----|
E|------------0-0--0------0-0--0------0-0--0-----0-0--0--------|
                           Hetki lyö,   meille hetki lyö,

    C                              H7
e|----------------------------------------------------|
H|----------------------------------------------------|
G|----------------------------------------------------|
D|------2-----0---------------------------------------|
A|-------------------4--------3----2------------------|
E|----------------------------------------------------|
en vaan päivää seuraavaa mä tiedä, milloin kohdataan.


               Em             G                      D
        Kellon seisahtuvan tahdon, hiljentyvän lyöntien.
              Em           G                    D
        Kauas lähteä mä saan, tunti kuluu viimeinen.
               Em                        C
        Tahdon ennenkuin on myöhäistä, mä kuulla sen:
                 Em                          C
        kun taas saavun, luotas löydän kaiken entisen.


Em     Em(maj7) Em7           Em6
Nään jo sen,    hetken viimeisen, 
Em                    Em7       Am         H7
enää aikaa sulla on vain kyyneliin katkeriin.

Em     Em(maj7) Em7           Em6
Hetki lyö,      riittänyt ei yö,
       C                          H7
Mukaan tulla et sä voi, nyt lausun sulle "Näkemiin".

               Em             G                      D
        Kellon seisahtuvan tahdon, hiljentyvän lyöntien.
               Em           G                    D
        Luotas lähteä mä saan, tunti kuluu viimeinen.
                 Em                         C
        Vaan nyt tiedän, että sulle kuulun ainiaan.
                Em                          C
        Muistan kyynelsilmät, jotka jäivät katsomaan.


Lyhyt soolo, jonka sointukulku:

Em - D - Am - C
Em - D - C - H7


Väliosa:

1. kitara
e|------------------------------------------|------------------------------------|
H|-----------12-----------------------------|-----------12-----------------------|
G|-9-11-12-9-----12-11-12--11-9-11----9-11--|-9-11-12-9-----12-11-12-11----11-9--|
D|---------------------------------12-------|---------------------------12-------|


1. kitara
e|------------------------------------------|------------------------------------|
H|-----------12-----------------------------|-----------12-----------------------|
G|-9-11-12-9-----12-11-12--11-9-11----9-11--|-9-11-12-9-----12-11-12-11----11-9--|
D|---------------------------------12-------|---------------------------12-------|
2. kitara
e|-----------12-----------------------------|-----------12-----------------------|
H|-8-10-12-8-----12-10-12--10-8-10-8----10--|-8-10-12-8-----12-10-12-10----10----|
G|-----------------------------------11-----|---------------------------11----9--|
D|------------------------------------------|------------------------------------|





Em     Em(maj7) Em7           Em6
Hetki lyö,      viime hetki lyö, 
Em                    Em7       Gm         A7
kukaan aikaa lahjomaan ei käydä voi milloinkaan.
Em     Em(maj7) Em7           Em6
Hetki lyö,      meille hetki lyö,
        Bb                         A7
en vaan päivää seuraavaa mä tiedä, milloin kohdataan.

               Em             G                      D
        Kellon seisahtuvan tahdon, hiljentyvän lyöntien.
              Em           G                    D
        Kauas lähteä mä saan, tunti kuluu viimeinen.
               Em                        C
        Tahdon ennenkuin on myöhäistä, mä kuulla sen:
                 Em                          C
        kun taas saavun, luotas löydän kaiken entisen.


Loppuun:

  Em...
e|----------------------|
H|----------------------|
G|---------------5-8-5--|
D|-----------4-7--------|
A|----------------------|
E|----------------------|

http://www.kirka.com/
Tap to rate this tab
 
# A B C D E F G H I J K L M N O P Q R S T U V W X Y Z