Song name
# A B C D E F G H I J K L M N O P Q R S T U V W X Y Z

Kishida Kyoudan And The Akeboshi Rocket - Highschool Of The Dead tab

This is only the anime opening


Intro
E-------------------------------|
B-------------------------------|
G------7-9-9-9------------------|
D--9-9---------7-7-7-8-8-8------|
A-------------------------------|
E-------------------------------|


E-------------------------------------------|
B-------------------------------------------|
G--7-7--9--7-7--7-7-7-6-6-6--12-11-11-9-7---|
D--5-5--7--5-5--5-5-5-4-4-4--10-9--9--7-5---|
A-------------------------------------------|
E-------------------------------------------|

E------------------------------/17-17-15---------/15--|
B-----------------------------------------13-12-------|
G-----------------------------------------------------|
D--7-7--9--7-7---7-7--9--7-7--------------------------|
A--5-5--7--5-5---5-5--7--5-5--------------------------|
E-----------------------------------------------------|


verse
E------------------------------------------------------------------|
B------------------------------------------------------------------|
G--9-9-x-9-9-9-x-x-7-7-x-7-7-7-x-x-5-5-x-5-5-5-x-x-7-7-x-7-7-7-x-x-|
D--9-9-x-9-9-9-x-x-7-7-x-7-7-7-x-x-5-5-x-5-5-5-x-x-7-7-x-7-7-7-x-x-|
A--7-7-x-7-7-7-x-x-5-5-x-5-5-5-x-x-3-3-x-3-3-3-x-x-5-5-x-5-5-5-x-x-|
E------------------------------------------------------------------|

E---------------------------------------------------------------|
B---------------------------------------------------------------|
G------------------5-5-x-5-5-5-x-x-7-7-x-7-7-7-x-x--9--9--9--5--|
D--7-7-x-7-7-7-x-x-5-5-x-5-5-5-x-x-7-7-x-7-7-7-x-x--9--9--9--5--|
A--7-7-x-7-7-7-x-x-3-3-x-3-3-3-x-x-5-5-x-5-5-5-x-x--7--7--7--3--|
E--5-5-x-5-5-5-x-x----------------------------------------------|

E-------------------------------------------------------------|
B-------------------------------------------------------------|
G--2---------2--4---------4--5---------5--4-4-4-4-4-4-4-4-----|
D--2---------2--4---------4--5---------5--4-4-4-4-4-4-4-4-----|
A--0-0-0-0-0-0--2-2-2-2-2-2--3-3-3-3-3-3--2-2-2-2-2-2-2-2-----|
E-------------------------------------------------------------|

chorus
E--------------------------------|
B--------------------------------|
G---2--5--------5--4--5--7-------|
D---2--5--5--7--5--4--5--7-------|
A---0--3--5--7--3--2--3--5-------|
E---------3--5-------------------|

outro
E----------------------|
B----------------------|
G-----4--3--2--0-------|
D--2--------------0----|
A----------------------|
E----------------------|
Tap to rate this tab
# A B C D E F G H I J K L M N O P Q R S T U V W X Y Z