Song name
# A B C D E F G H I J K L M N O P Q R S T U V W X Y Z

Kiss - Goin Blind tab

Highlighted       Show chord diagrams
Kiss: Goin' Blind
Tabbed By -Mellecobain
Comment or questions? email me
Mellevanderwiel@hotmail.com




   G#m    F#m    A#m    A#5    C5     D#5    F5     F
e:|---|  |---|  |---|  |---|  |---|  |---|  |---|  |---|
B:|---|  |---|  |-2-|  |---|  |---|  |---|  |---|  |---|
G:|---|  |---|  |-3-|  |---|  |---|  |-3-|  |-5-|  |---|
D:|-6-|  |-4-|  |-3-|  |-3-|  |-5-|  |-1-|  |-3-|  |-3-|
A:|-6-|  |-4-|  |-1-|  |-1-|  |-3-|  |---|  |---|  |-3-|
E:|-4-|  |-2-|  |---|  |---|  |---|  |---|  |---|  |-1-|



*1
e:-6-4-------4--------|
B:-----6-4-6---6-4-6--|

*2
e|-9-8-6----6-9-6--------|
B|-------9--------9-6----|



Intro
G#m - F#m - A#m - G#m - A#5 - C5 - D#5 - F5   (x2)




G#m   F#m                A#m
And I know how it should be
G#m          A#5-C5-D#5-F5        F
There is nothing more for you and i
G#m        F#m                A#m
Some are young and some are free
G#m   A#5-C5-D#5-F  F
But I think Im goin blind
A#m      G#m           F           *1
cause, I think Im goin blind
A#m    G#m            F            *2
And I know how its to be, yeah

G#m     F#m           A#m
Little lady, cant you see
G#m     A#5-C5-D#5-F5                F
Youre so young and so much different than i
G#m F#m       A#m
Im  93, youre sixteen
G#m    A#5-C5-D#5-F  F 
Cant you see Im goin blind


A#m      G#m           F           *1
cause, I think Im goin blind
A#m    G#m            F            *2
And I know how its to be, yeah

   solo
e:--------------------------------16b(18)~-16b~-16b~-16b---------------------|
B:-----16b(18)-16b/16-14~--16-14-------------------------14/16/14--14/16b-16b|
G:---------------------------------------------------------------------------|
D:---------------------------------------------------------------------------|
A:---------------------------------------------------------------------------|
E:---------------------------------------------------------------------------|

e:--------------------------------------------16---------------------16b~-16b|
B:-16b-16b-16b-16b-16b-16b-14------------16b~~~~16~~-16/14----14-------------|
G:-----------------------------15-15b~---------------------13----13----------|
D:---------------------------------------------------------------------------|
A:---------------------------------------------------------------------------|
E:---------------------------------------------------------------------------|

e:~-16b~-16b/16----------------------------------------------------------|
B:---------------14/16/14-14/16b--16b/16-16b/16-14-----------------------|
G:--------------------------------------------------13-15b--13-15b/15/15b|
D:-----------------------------------------------------------------------|
A:-----------------------------------------------------------------------|
E:-----------------------------------------------------------------------|

A#m      G#m           F           *1
cause, I think Im goin blind
A#m    G#m            F            *2
And I know how its to be, yeah

G#m        F#m               A#m
Youre much younger, cant you see
G#m      A#5-C5-D#5-F5            F
There is nothing more for you and i
G#m F#m       A#m
Im  93, youre sixteen
G#m    A#5-C5-D#5-F  F 
Cant you see Im goin blind

A#m    G#m           F
Yes, I think Im goin blind
A#m        G#m            F
And I know how its to be, yeah
Tap to rate this tab
 
# A B C D E F G H I J K L M N O P Q R S T U V W X Y Z