Song name
# A B C D E F G H I J K L M N O P Q R S T U V W X Y Z

Kiss - Calling Dr Love tab

From: robs@violet.berkeley.edu (Rob Schenk)

Note: This was entered into a word processor on a mac
as a text document. If viewed on a unix machine, the
columns might be screwed up.

Calling Dr. Love

by Kiss

Tune down 1/2 step

Intro/verses

------------------------------------------
------------------------------------------
------------------------------------------
-9--x--x--12--x--x--7--x--x------x--9-
-7--x--x--10--x--x--5--x--x--7--x--7-
------------------------------------5------

------------------------------------------
------------------------------------------
------------------------------------2------
-9--x--x--12--x--x--7--x--x--2--x--x--9--
-7--x--x--10--x--x--5--x--x--0--x--x--7--
------------------------------------------

before chorus

------------------------------------------
-3---3--------------------------------------
-0---2----5--5-----5--5---5---5----5----7--7--
-0---0----5--5-----5--5---5---5----5----7--7--
-----------3--3-----3--3---3---3----3----5--5--
------------------------------------------


chorus

------------------------------------------
------------------------------------------
------------------------------------------
-1/2---------2--0----------------2---------
----------------------1--0------------------
--------0--0----------------3--2-------0---

------------------------------------------
------------------------------------------
------------------------------------------
------------------------------------------
--5--3--2------5--3--2-----------------
-------------5-----------------------------
Tap to rate this tab
# A B C D E F G H I J K L M N O P Q R S T U V W X Y Z