Guitaretab - guitar tabs
Song name
# A B C D E F G H I J K L M N O P Q R S T U V W X Y Z
Home / K / Kiss / Firehouse tab

Kiss - Firehouse tab

Kiss - Firehouse(2 Guitar)
                              Album : Kiss
                          Written by Paul Stanley
                          Tabbed by Ignacio Arcos


----------------------------------------------------------------------------|
----------------------------------------------------------------------------|
-2----2----4----2----2----2--2----7-7^9-7-7^9-7-7^9-7--2-X------------------|
-2----4----6----4----2----4--2----0---9-0---9-0---9-0--2-X------------------|
-0----0----0----0----0----0--0-------------------------0-X------------------|
----------------------------------------------------------------------------|


----------------------------------------------------------------------------|
----------------------------------------------------------------------------|
-2----2----4----2----2----2--2----7-7^9-7-7^9-7-7^9-7--2-X------------------|
-2----4----6----4----2----4--2----0---9-0---9-0---9-0--2-X------------------|
-0----0----0----0----0----0--0-------------------------0-X------------------|
----------------------------------------------------------------------------|

Whoo, hoo, yeah

----------------------------------------------------------------------------|
----------------------------------------------------------------------------|
-2---------2---------7-7^9-7-7^9-7-7^9-7--2---------------------------------|
-2---------2---------0---9-0---9-0---9-0--2---------------------------------|
-0---------0------------------------------0---------------------------------|
---3-0-3-0---3-0-3-0--------------------------------------------------------|

Whoo, hoo, yeah

----------------------------------------------------------------------------|
----------------------------------------------------------------------------|
-2---------2---------7-7^9-7-7^9-7-7^9-7--2---------------------------------|
-2---------2---------0---9-0---9-0---9-0--2---------------------------------|
-0---------0------------------------------0---------------------------------|
---3-0-3-0---3-0-3-0--------------------------------------------------------|

She'll adore you and she'll floor you
with her wisdom and her vision

----------------------------------------------------------------------------|
----------------------------------------------------------------------------|
-2-2-2--2-2-2----7-7^9-7-7^9-7-7^9-7--2-------------------------------------|
-2-2-2--2-2-2----0---9-0---9-0---9-0--2-------------------------------------|
-0-0-0--0-0-0-------------------------0-------------------------------------|
----------------------------------------------------------------------------|

and you'll love it and think of it
till you lose all intuition

----------------------------------------------------------------------------|
----------------------------------------------------------------------------|
-2-2-2--2-2-2----7-7^9-7-7^9-7-7^9-7--2-------------------------------------|
-2-2-2--2-2-2----0---9-0---9-0---9-0--2-------------------------------------|
-0-0-0--0-0-0-------------------------0-------------------------------------|
----------------------------------------------------------------------------|

Come! 00:50(When the solo begins)
----------------------------------------------------------------------------|
----------------------------------------------------------------------------|
-4---3-5-5-5----------------------------------------------------------------|
-4-2-3-5-5-5----------------------------------------------------------------|
-2-2-1-3-3-3----------------------------------------------------------------|
---0------------------------------------------------------------------------|

She can move you and improve you
with her love and her devotion

----------------------------------------------------------------------------|
----------------------------------------------------------------------------|
-2--2---7-7^9-7-7^9-7-7^9-7--2----------------------------------------------|
-2--2---0---9-0---9-0---9-0--2----------------------------------------------|
-0--0------------------------0----------------------------------------------|
----------------------------------------------------------------------------|

and she'll thrill you and she'll chill you
but you're headed for commotion

----------------------------------------------------------------------------|
----------------------------------------------------------------------------|
-2--2---7-7^9-7-7^9-7-7^9-7--2----------------------------------------------|
-2--2---0---9-0---9-0---9-0--2----------------------------------------------|
-0--0------------------------0----------------------------------------------|
----------------------------------------------------------------------------|

And you'll need her so you'll feed her
with your endless dedication

----------------------------------------------------------------------------|
----------------------------------------------------------------------------|
-2--2---7-7^9-7-7^9-7-7^9-7--2----------------------------------------------|
-2--2---0---9-0---9-0---9-0--2----------------------------------------------|
-0--0------------------------0----------------------------------------------|
----------------------------------------------------------------------------|

and the quicker you get sicker
she'll remove your medication

----------------------------------------------------------------------------|
----------------------------------------------------------------------------|
-2--2---7-7^9-7-7^9-7-7^9-7--2----------------------------------------------|
-2--2---0---9-0---9-0---9-0--2----------------------------------------------|
-0--0------------------------0----------------------------------------------|
----------------------------------------------------------------------------|

01:31(When the solo begins)

----------------------------------------------------------------------------|
----------------------------------------------------------------------------|
-4---3-5-5-5----------------------------------------------------------------|
-4-2-3-5-5-5----------------------------------------------------------------|
-2-2-1-3-3-3----------------------------------------------------------------|
---0------------------------------------------------------------------------|

Get the firehouse
'cause she sets my soul afire
[ Tab from: http://www.guitaretab.com/k/kiss/9845.html ]
----------------------------------------------------------------------------|
----------------------------------------------------------------------------|
-2---------2---------7-7^9-7-7^9-7-7^9-7--2---------------------------------|
-2---------2---------0---9-0---9-0---9-0--2---------------------------------|
-0---------0------------------------------0---------------------------------|
---3-0-3-0---3-0-3-0--------------------------------------------------------|

get the firehouse
and the flames keep gettin' higher

----------------------------------------------------------------------------|
----------------------------------------------------------------------------|
-2---------2---------7-7^9-7-7^9-7-7^9-7--2---------------------------------|
-2---------2---------0---9-0---9-0---9-0--2---------------------------------|
-0---------0------------------------------0---------------------------------|
---3-0-3-0---3-0-3-0--------------------------------------------------------|

She's like bad weather but it seems so good

----------------------------------------------------------------------------|
----------------------------------------------------------------------------|
--------4-4-4---------------------------------------------------------------|
--------4-4-4------------2-2-2----------------------------------------------|
--------2-2-2------------2-2-2----------------------------------------------|
-------------------------0-0-0----------------------------------------------|

you'd never leave her but you know you should

----------------------------------------------------------------------------|
----------------------------------------------------------------------------|
--------3-3-3---------------------------------------------------------------|
--------3-3-3------------5-5-5----------------------------------------------|
--------1-1-1------------5-5-5----------------------------------------------|
-------------------------3-3-3----------------------------------------------|


02:04 (When the solo begins)
                                                                        [2x]
----------------------------------------------------------------------------|
----------------------------------------------------------------------------|
-2---------2---------7-7^9-7-7^9-7-7^9-7--2---------------------------------|
-2---------2---------0---9-0---9-0---9-0--2---------------------------------|
-0---------0------------------------------0---------------------------------|
---3-0-3-0---3-0-3-0--------------------------------------------------------|


She's like bad weather but it seems so good

----------------------------------------------------------------------------|
----------------------------------------------------------------------------|
--------4-4-4---------------------------------------------------------------|
--------4-4-4------------2-2-2----------------------------------------------|
--------2-2-2------------2-2-2----------------------------------------------|
-------------------------0-0-0----------------------------------------------|

you'd never leave her but you know you should

----------------------------------------------------------------------------|
----------------------------------------------------------------------------|
--------3-3-3---------------------------------------------------------------|
--------3-3-3------------5-5-5----------------------------------------------|
--------1-1-1------------5-5-5----------------------------------------------|
-------------------------3-3-3----------------------------------------------|

02:30

----------------------------------------------------------------------------|
----------------------------------------------------------------------------|
-2----2----4----2----2----2--2----7-7^9-7-7^9-7-7^9-7--2--------------------|
-2----4----6----4----2----4--2----0---9-0---9-0---9-0--2--------------------|
-0----0----0----0----0----0--0-------------------------0--------------------|
----------------------------------------------------------------------------|

Ooh
get the firehouse
'cause she sets my soul afire

----------------------------------------------------------------------------|
----------------------------------------------------------------------------|
-2---------2---------7-7^9-7-7^9-7-7^9-7--2---------------------------------|
-2---------2---------0---9-0---9-0---9-0--2---------------------------------|
-0---------0------------------------------0---------------------------------|
---3-0-3-0---3-0-3-0--------------------------------------------------------|

get the firehouse

----------------------------------------------------------------------------|
----------------------------------------------------------------------------|
-2---------2----------------------------------------------------------------|
-2---------2----------------------------------------------------------------|
-0---------0----------------------------------------------------------------|
---3-0-3-0------------------------------------------------------------------|

whoo, hoo, yeah

----------------------------------------------------------------------------|
----------------------------------------------------------------------------|
-7--6--4-4---6--4----2------------------------------------------------------|
-5--4--2-2---4--2----2------------------------------------------------------|
---------------------0------------------------------------------------------|
----------------------------------------------------------------------------|


get the firehouse

----------------------------------------------------------------------------|
----------------------------------------------------------------------------|
-2---------2----------------------------------------------------------------|
-2---------2----------------------------------------------------------------|
-0---------0----------------------------------------------------------------|
---3-0-3-0------------------------------------------------------------------|

whoo, hoo, yeah

----------------------------------------------------------------------------|
----------------------------------------------------------------------------|
-7--6--4-4---6--4----2------------------------------------------------------|
-5--4--2-2---4--2----2------------------------------------------------------|
---------------------0------------------------------------------------------|
----------------------------------------------------------------------------|


Enjoy !

! You wanted the best , you got the best !
     the hottest band of the world
                   KISS!
Related for Firehouse tab