Song name
# A B C D E F G H I J K L M N O P Q R S T U V W X Y Z

Kiss - Into The Void tab

For all of you who dont have a clue this is Ace singing (or else i have a mental problem 
i dont think i do so)

Key:
/    = slide up
\    = slide down
b    = bend (whole step)
b^   = bend (1/2 step)
b^^  = bend (1 1/2 steps)
pb   = pre-bend
r    = release-bend
t   = tap with righthand finger
h    = hammer-on
p    = pull-off
~    = Vibrato
*    = Natural Harmonic
#(#) = Trill
**   = Artificial Harmonic
x    = Dead notes (no pitch)
P.M. = Palm mute (- -> underneath indicates which notes)
(\)  = Dive w\bar
(/)  = Release w\bar
Tp   = Tap w\plectrum


Rhythm Fig. 1

Eb|--------------------------------------------------------------------|
Bb|--------------------------------------------------------------------|
Gb|----------------------------------------0---------------------------|
Db|----------------------------0---------------------------------------|
Ab|-----6--7----6--7----4b^-------4p-0-----------------6--7----6--7----|
Eb|--0----------------------------------3-----3--2--0------------------|
    < - - - - - - - - - - - 3x - - - - - - - - - >


Eb|--------------------------------------------------------------------|
Bb|--------------------------------------------------------------------|
Gb|--------------------------------------------------------------------|
Db|---------------------5~---------------------------------------------|
Ab|------------5--7----------------------------------------------------|
Eb|-5~---6--7--------7-------------------------------------------------|


Rhythm Fig. 2

Eb|-----0---------------------------------------------------------0----|
Bb|-----0---------------------------------------------------------0----|
Gb|--------------------------------------------------------------------|
Db|-------------------7/-9----7/-9----7--7----7----7-------------------|
Ab|-------------------5/-7----5/-7----4/-5----5----4p-0----------------|
Eb|--0-------------0-------------------------------------3b----0-------|
     < - - - - - - - - - - - - - 2x - - - - - - - - - - - >


Eb|--------------------------------------------------------------------|
Bb|--------------------------------------------------------------------|
Gb|--------------------------------------------------------------------|
Db|-----7/-9----7/-9----7--7----7----7---------------------------------|
Ab|-----5/-7----5/-7----4/-5----5----4---------------------------------|
Eb|--0----------------------------------5--7---------------------------|

Rhythm Fig. 3

Eb|--------------------------------------------------------------------|
Bb|--------------------------------------------------------------------|
Gb|--7--------------------7-----------9---------------7----------------|
Db|--7---------7----------7-----------9---------------7--------7-------|
Ab|--5---------7----------5-----------7---------------5--------7-------|
Eb|------------5--------------------------------5--7-----------5-------|

Eb|--------------------------------------------------------------------|
Bb|--------------------------------------------------------------------|
Gb|--------------------------------------------------------------------|
Db|--9--9--9--9--9--9--9--9--9--9--9--9--9--9--9--9--------------------|
Ab|--9--9--9--9--9--9--9--9--9--9--9--9--9--9--9--9--------------------|
Eb|--7--7--7--7--7--7--7--7--7--7--7--7--7--7--7--7--------------------|

Rhythm Fig. 4

Eb|--------------------------------------------------------------------|
Bb|----------------------------8----8--7------------11----11--10-------|
Gb|--2----2-------------7------7----7--7----10------10----10--10----12-|
Db|--2----2-------------7------7----7--7----10------12----12--10----12-|
Ab|--0----0----3p-0--3--5-------------------8-----------------------10-|
Eb|--------------------------------------------------------------------|

Eb|--------------------------------------------------------------------|
Bb|------13----13--12--------------------------------------------------|
Gb|------12----12--12--------------------------------------------------|
Db|------14----14--12--------------------------------------------------|
Ab|--------------------------------------------------------------------|
Eb|--------------------------------------------------------------------|


Rhythm Fig. 5

Eb|--------------------------------------------------------------------|
Bb|----12------------------10------------------------------------------|
Gb|----12------------------10------------------------------------------|
Db|----12------------------10------------------------------------------|
Ab|--------------------------------------------------------------------|
Eb|--------------------------------------------------------------------|

Rhythm Fig. 6

Eb|----12-------0------------------------------------------------------|
Bb|----12-----------0---------------2-----3---2---3-----2----3--2----2-|
Gb|---------------------1-----------2-----2---2---2-----2----2--2----2-|
Db|---------------------------------2-----4---2---4-----2----4--2----2-|
Ab|---------------------------------0-----0---0---0-----0----0--0----0-|
Eb|-0------------------------3b----------------------------------------|
   < - - - - - 2x - - - - - - >     < - - - - - - - - 2x - - - - - - >


Eb|--------------------------------------------------------------------|
Bb|--4-----5---4---5-----4----5--4----4-----3--------------2-----------|
Gb|--4-----4---4---4-----4----4--4----4-----2--------------2-----------|
Db|--4-----6---4---6-----4----6--4----4-----0--------------2-----------|
Ab|--------------------------------------------------------0-----------|
Eb|--------------------------------------------------------------------|

Eb|-------12----------0------------------------------------------------|
Bb|-------12----------------0------------------------------------------|
Gb|------------------------------1-------------------------------------|
Db|--------------------------------------------------------------------|
Ab|--------------------------------------------------------------------|
Eb|--0--------------------------------3b-------------------------------|
    < - - - - - - - 2x - - - - - - - - >

Rhythm Fig. 7

Eb|--------------------------------------------------------------------|
Bb|--------------------------------------------------------------------|
Gb|--------------------------------------0-----------------------------|
Db|--------------------------0-----------------------7/-9----7/-9---7--|
Ab|-----6--7---6--7----4b^------4p-0-----------------5/-7----5/-7---4/-|
Eb|--0--------------------------------3-----3-2---0--------------------|

Eb|--------------------------------------------------------------------|
Bb|--------------------------------------------------------------------|
Gb|--------------------------------------------------------------------|
Db|--7----7----7-------------------------------------------------------|
Ab|--5----5----4p-0----------------------------------------------------|
Eb|------------------3b------------------------------------------------|

Riff 1

Eb|--5--5--3----0--3---------------------------------------------------|
Bb|--5--5--5----5--5---------------------------------------------------|
Gb|--------------------------------------------------------------------|
Db|--------------------------------------------------------------------|
Ab|--------------------------------------------------------------------|
Eb|--------------------------------------------------------------------|


Riff 2

Eb|--------16~---------------------------------------------------------|
Bb|--------------------------------------------------------------------|
Gb|--/16~--------------------------------------------------------------|
Db|--------------------------------------------------------------------|
Ab|--------------------------------------------------------------------|
Eb|--------------------------------------------------------------------|


Riff 3

Eb|--------------------------------------------------------------------|
Bb|--------------------------------------------------------------------|
Gb|--9\----------------------------------------------------------------|
Db|--9\----------------------------------------------------------------|
Ab|--7\----------------------------------------------------------------|
Eb|--------------------------------------------------------------------|

Solo

Eb|--------------------------------------------------------------------|
Bb|--------------------------------------------------------------------|
Gb|-------------------------------------------------12-14-14b^^--14b^^-|
Db|-------11**------11-12-11h12p11-----11-12-11--14--------------------|
Ab|--/12---------12-----------------12---------------------------------|
Eb|--------------------------------------------------------------------|

Eb|--------------------------------------------------------------------|
Bb|---------------------------------13-14-15-13-14-15-13-14-15----0----|
Gb|--14b^^-14r-12h14p12----12h14~--------------------------------------|
Db|---------------------14---------------------------------------------|
Ab|--------------------------------------------------------------------|
Eb|--------------------------------------------------------------------|


Eb|-------7---10--9--7----------------------------10-------14----------|
Bb|--7----7-------------10--9-9h10p9p7---7-----------------------------|
Gb|--9b--------------------------------9-----/11-------14--------------|
Db|--------------------------------------------------------------------|
Ab|--------------------------------------------------------------------|
Eb|--------------------------------------------------------------------|

Eb|------5---------9-----------17b--17b--17b-17b~--17r-----12-15-14-12-|
Bb|--------------------------------------------------------------------|
Gb|--/6--------9-------------------------------------------------------|
Db|--------------------------------------------------------------------|
Ab|--------------------------------------------------------------------|
Eb|--------------------------------------------------------------------|

Eb|--------------------------------------------------------------------|
Bb|--15-14-12----------------------------------------------------------|
Gb|-----------14-13-12-------------------------------------------------|
Db|--------------------14-13-12----------------------------------------|
Ab|-----------------------------14-13-12-11-12-11-12-11h12p11~---------|
Eb|--------------------------------------------------------------------|

Into The Void
Ace Frehley, Carl Cochran

[Rhy. Fig 1]

[Rhy. Fig 2]
I'm losing power, And I don't know why
Not really sure if I'll live or die
I wanna leave, But I can't get away

[Rhy. Fig 3]
It's a strange sensation
Out of control being by myself
I feel this gravitation
Caught like a magnet and I'm being pulled

[Rhy. Fig 4 with Riff 1]
Into the void, I wanna get away, get away
Into the void, I'm being pulled, I'm being pulled down
Into the void, This place is spinning, spinning around
Into the void, Feel like I'm being pulled into a black hole
[Rhy. Fig 5]
(Into the void)

[Rhy. Fig 2 with Riff 2]
This crazy feeling's screwing with my head
I'm overloading and my gauges are red
State of confusion's got ahold on me

[Rhy. Fig 3]
I feel a hesitation
I'm being drawn, pulled out of the track
Don't like the situation
Caught like a magnet and I'm being pulled

[Rhy. Fig 4 with Riff 1]
Into the void, I wanna get away, get away
Into the void, I'm being pulled, I'm being pulled down
Into the void, This place is spinning, spinning around
Into the void, Feel like I'm being pulled into a black hole
Into the void, I'm being pulled, being pulled down down down down
[Rhy. Fig 5]
(Into the void)

[Solo over Rhy. Fig 6]

[Rhy. Fig 7]

[Rhy. Fig 4 with Riff]
Into the void, Don't like this feeling, I'm being pulled down
Into the void, I wanna get away, get away
Into the void, Feel like it's spinning, spinning around
Into the void, I'm being pulled, being pulled down down down down
Into the void, Get away, get away
Into the void, It's like I'm being pulled into a black hole
[Rhy. Fig 5]
(Into the void)

[Rhy. Fig 1]
[Riff 3]
Tap to rate this tab
# A B C D E F G H I J K L M N O P Q R S T U V W X Y Z