Song name
# A B C D E F G H I J K L M N O P Q R S T U V W X Y Z

Kiss - Love Gun tab

Eb Tuning

Key:
/    = slide up
\    = slide down
b    = bend (whole step)
b^   = bend (1/2 step)
b^^  = bend (1 1/2 steps)
pb   = pre-bend
r    = release-bend
r^   = release-bend half-step
h^   = hammer-on
p^   = pull-off
~    = Vibrato
*    = Natural Harmonic
#(#) = Trill
**   = Artificial Harmonic
x    = Muted String (Palm Muting)
X    = Muted String (Fretboard Muting
Rhythm Fig. 1

Eb|----------------------------------------------------|
Bb|----------------------------------------------------|
Gb|--9-9-9-9--9-9-9-9---9-9-9-9-9-9-9-9----------------|
Db|--9-9-9-9--9-9-9-9---9-9-9-9-9-9-9-9----------------|
Ab|--7-7-7-7--7-7-7-7---7-7-7-7-7-7-7-7----------------|
Eb|----------------------------------------------------|


Rhythm Fig. 2

Eb|----------------------------------------------------|
Bb|----------------------------------------------------|
Gb|--9-------------------7---7-----5---X-\9----7-------|
Db|--9-------------------7---7-----5---X-\9----7-------|
Ab|--7-------------------5---5-----3---X-\7----5-------|
Eb|----------------------------------------------------|


Rhythm Fig. 2a

Eb|----------------------------------------------------|
Bb|----------------------------------------------------|
Gb|--9----12----14-------7---7-----5---X-\9----7-------|
Db|--9----12----14-------7---7-----5---X-\9----7-------|
Ab|--7----10----12-------5---5-----3---X-\7----5-------|
Eb|----------------------------------------------------|



Rhythm Fig. 3

Eb|----------------------------------------------------|
Bb|----------------------------------------------------|
Gb|--9-----9-------X--12--7----5----7----9-------------|
Db|--9-----9-------X--12--7----5----7----9-------------|
Ab|--7-----7-------X--10--5----3----5----7-------------|
Eb|----------------------------------------------------|
     <-----------2x------->


Rhythm Fig. 3a

Eb|----------------------------------------------------|
Bb|----------------------------------------------------|
Gb|--9-------------------------------------------------|
Db|--9-------------------------------------------------|
Ab|--7-------------------------------------------------|
Eb|----------------------------------------------------|
     

Eb|----------------------------------------------------|
Bb|------------------------------12-----------15-------|
Gb|-12----------------19-14------12------19---14-------|
Db|-12----------------17-12------12------17---12-------|
Ab|----------------------------------------------------|
Eb|----------------------------------------------------|

Eb|----------------------------------------------------|
Bb|-13---------15-------12-----------------------------|
Gb|-12---------14-------12-----------------------------|
Db|-10---------12-------12-----------------------------|
Ab|----------------------------------------------------|
Eb|----------------------------------------------------|


Rhythm Fig. 4

Eb|---------2----0------------2------------------------|
Bb|--1------3----0------1-----3------------------------|
Gb|--2------2----0------2-----2------------------------|
Db|--2------0----2------2-----0------------------------|
Ab|--0-----------2------0------------------------------|
Eb|--------------0-------------------------------------|

Eb|----------------------------------------------------|
Bb|----------------------------------------------------|
Gb|--9-9-9-9--9-9-9-9---9-9-9-9-9-9-9-9----------------|
Db|--9-9-9-9--9-9-9-9---9-9-9-9-9-9-9-9----------------|
Ab|--7-7-7-7--7-7-7-7---7-7-7-7-7-7-7-7----------------|
Eb|----------------------------------------------------|


Rhythm Fig. 4a

Eb|----------------------------------------------------|
Bb|---------15---12-----------15-----------------------|
Gb|--14-----14---12-----14----14-----------------------|
Db|--14-----------------14-----------------------------|
Ab|----------------------------------------------------|
Eb|----------------------------------------------------|

Eb|----------------------------------------------------|
Bb|----------------------------------------------------|
Gb|--9-9-9-9--9-9-9-9---9-9-9-9-9-9-9-9----------------|
Db|--9-9-9-9--9-9-9-9---9-9-9-9-9-9-9-9----------------|
Ab|--7-7-7-7--7-7-7-7---7-7-7-7-7-7-7-7----------------|
Eb|----------------------------------------------------|


Rhythm Fig. 5

Eb|----------------------------------------------------|
Bb|----------------------------------------------------|
Gb|--9-9-9-9--9-9-9-9---9-9-9-9-9-9-9-9-9-9------------|
Db|--9-9-9-9--9-9-9-9---9-9-9-9-9-9-9-9-9-9------------|
Ab|--7-7-7-7--7-7-7-7---7-7-7-7-7-7-7-7-7-7------------|
Eb|----------------------------------------------------|
     <--------------------3x-------------->

Riff. 1

Eb|-12-------------------------------------------------|
Bb|----15--12--15--12------12--------------------------|
Gb|--------------------14------14--12--14--12--11------|
Db|------------------------------------------------14~-|
Ab|----------------------------------------------------|
Eb|----------------------------------------------------|

Riff. 2

Eb|-15--14--12--14--12----12---------------------------|
Bb|--------------------15----15--12--15--12------------|
Gb|------------------------------------------14--12~~--|
Db|----------------------------------------------------|
Ab|----------------------------------------------------|
Eb|----------------------------------------------------|


Riff. 3

Eb|-19--17-----17--------------------------------------|
Bb|---------20----20--19-20-19-17---19--17-------------|
Gb|-----------------------------------------19--16~~---|
Db|----------------------------------------------------|
Ab|----------------------------------------------------|
Eb|----------------------------------------------------|


Solo

Eb|----------------------------------------------------|
Bb|----------------------------------------------------|
Gb|----------------------------------------------------|
Db|--------------------------------------12------12----|
Ab|-----10----10--12--10--12/14--12--14------14--------|
Eb|--12----12------------------------------------------|


Eb|----------------------------------------------------|
Bb|----------------------------------------------------|
Gb|----------------------------------------------------|
Db|--------------12------12--14--12--14/16--14--16-----|
Ab|--14--12--14------14--------------------------------|
Eb|----------------------------------------------------|


Eb|--------------------------------------17------17----|
Bb|---15------15--17--15--17/20--17--20------20--------|
Gb|-------16-------------------------------------------|
Db|----------------------------------------------------|
Ab|----------------------------------------------------|
Eb|----------------------------------------------------|


Eb|------17--19-17-----19-17-----22--19--22------------|
Bb|--20------------20--------20------------------------|
Gb|----------------------------------------------------|
Db|----------------------------------------------------|
Ab|----------------------------------------------------|
Eb|----------------------------------------------------|


Eb|-22b-r22-22b-r22-22b-r22-22b-r22-22b-r22--22b-------|
Bb|----------------------------------------------------|
Gb|----------------------------------------------------|
Db|----------------------------------------------------|
Ab|----------------------------------------------------|
Eb|----------------------------------------------------|


Eb|----------------------------------------------------|
Bb|----------------------------------------------------|
Gb|-----14**b--14**b--14**b--14**b-r14--12-------------|
Db|-----------------------------------------14---------|
Ab|----------------------------------------------------|
Eb|----------------------------------------------------|


Eb|------------12---------12--15--12--14--12------12---|
Bb|---------12---------12---------------------15-------|
Gb|-----14b--------14b---------------------------------|
Db|----------------------------------------------------|
Ab|----------------------------------------------------|
Eb|----------------------------------------------------|
                   <-------------6x---------------->


Eb|----------12---------12--------12-------------------|
Bb|-------12---------12--------12----------------------|
Gb|---14b--------14b-------14b-------14b---------------|
Db|----------------------------------------------------|
Ab|----------------------------------------------------|
Eb|----------------------------------------------------|


Eb|-12-------------------------------------------------|
Bb|----15--12--15--12------12--------------------------|
Gb|--------------------14------14--12--14--12--11------|
Db|------------------------------------------------14~-|
Ab|----------------------------------------------------|
Eb|----------------------------------------------------|

Riff. 1

Eb|-12-------------------------------------------------|
Bb|----15--12--15--12------12--------------------------|
Gb|--------------------14------14--12--14--12--11------|
Db|------------------------------------------------14~-|
Ab|----------------------------------------------------|
Eb|----------------------------------------------------|

Riff. 2

Eb|-15--14--12--14--12----12---------------------------|
Bb|--------------------15----15--12--15--12------------|
Gb|------------------------------------------14--12~~--|
Db|----------------------------------------------------|
Ab|----------------------------------------------------|
Eb|----------------------------------------------------|


Riff. 3

Eb|-19--17-----17--------------------------------------|
Bb|---------20----20--19-20-19-17---19--17-------------|
Gb|-----------------------------------------19--16~~---|
Db|----------------------------------------------------|
Ab|----------------------------------------------------|
Eb|----------------------------------------------------|


LOVE GUN - Paul Stanley
[Rhythm Fig. 1]
[Rhythm Fig. 2] w/[Rhythm Fig. 2a]

[Rhythm Fig. 3] w/[Rhythm Fig. 3a]
I really love you baby
I love what you've got
Let's get together, we can
Get hot
No more tomorrow, baby
Time is today
Girl, I can make you feel
Okay

[Rhythm Fig. 4] w/[Rhythm Fig. 4a]
No place for hidin' baby
No place to run
You pull the trigger of my
[Rhythm Fig. 1]

[Rhythm Fig. 2] w/[Rhythm Fig. 2a] (2x)
Love gun, (love gun), love gun
Love gun, (love gun), love gun

[Rhythm Fig. 3] w/[Rhythm Fig. 3a]
You can't forget me baby
Don't try to lie
You'll never leave me, mama
So don't try
I'll be a gambler, baby
Lay down the bet
We get together, mama
You'll sweat

[Rhythm Fig. 4] w/[Rhythm Fig. 4a]
No place for hidin' baby
No place to run
You pull the trigger of my
[Rhythm Fig. 1]

[Rhythm Fig. 2] w/[Rhythm Fig. 2a] (4x)
Love gun, (love gun), love gun
Love gun, (love gun), love gun
Love gun, love gun

[Solo] w/[Rhythm Fig.5] then [Rhythm Fig. 2a] (Until fade)

Love gun, (love gun), love gun
Love gun, (love gun)
Love gun, (love gun), love gun
Love gun, (love gun), love gun
[Riff. 1] w/[Riff. 2]
Love gun, (love gun)
[Riff. 1] w/[Riff. 2] w/ [Riff. 3]
Love gun, (love gun)
[Riff. 1] w/[Riff. 2]
Love gun, (love gun)
Love gun, (love)
Tap to rate this tab
# A B C D E F G H I J K L M N O P Q R S T U V W X Y Z