Guitaretab - guitar tabs
Song name
# A B C D E F G H I J K L M N O P Q R S T U V W X Y Z

Kitchie Nadal - Same Ground tab

same Ground-kitchie Nadal
Tabed by Mj Nieva
tuning:standard
e|-
B|-
G|-
D|-
A|-
E|-


solo
e|---------------------------7-7h9---------------------------------------|
B|---------------------7--9--------10------------------------------------|
G|---------------7--9----------------------------7--9--11/12---9---------|
D|------------7----------------------------------------------------------|
A|------7--9-------------------------------5--7--------------------------|
E|--10-------------------------------------------------------------------|

     SL
e|-----------------------------------------------------------------------|
B|---------------------5------5-------10---12--12/14--14-14-14/15--12-12-|
G|--9\7----7h9-6--6/7----6/7-------9-----9-------------------------------|
D|-----------------------------------------------------------------------|
A|-----------------------------------------------------------------------|
E|-----------------------------------------------------------------------|
  just listen to the song to get the timing mostly in hammer part:
e|------12--12---------------------------------------------12h13-12---17-|
B|--14---------14\10-10------------------------------------12h13-12---17-|
G|-----------------------11--9--9h11-9-----------------------------------|
D|-------------------------------------11-11--9h11-9-9h11----------------|
A|-----------------------------------------------------------------------|
E|-----------------------------------------------------------------------|

e|------------------------------------7--9-10-12/17--------12------------|
B|--------------------------------10--------------------------------13---|
G|--12h13-12--12h14-9--7h9-9--7h9--------------------9/10------9/10------|
D|-----------------------------------------------------------------------|
A|-----------------------------------------------------------------------|
E|-----------------------------------------------------------------------|

e|-----------------------------------------------------------------------|
B|-------12-------10-----------------------------------------------------|
G|-9/10------9/10-----9/10-9--7h8-8--------------------------------------|
D|----------------------------------8-7----------------------------------|
A|--------------------------------------8-7-5------7---------------------|
E|--------------------------------------------8-7--5---------------------|


thats all folks....
pakingan nyo nalang yong song para makuha nyo yng timing lalo na dun sa mga hammer part
ksing mga part na mahirap paliwanag sa tab..like for example:

e|------12--12---------------------------------------------12h13-12---17-|
B|--14---------14\10-10------------------------------------12h13-12---17-|
G|-----------------------11--9--9h11-9-----------------------------------|
D|-------------------------------------11-11--9h11-9-9h11----------------|
A|-----------------------------------------------------------------------|
E|-----------------------------------------------------------------------|


yng hammer (9h11 9) bale nag hammer ka 9 to 11 tapos maiiwan yng tunog dun sa number
bale pagka hammer mo sa 9 to 11 hindi mo aalisin yng finger mo sa number 9..teknik dyan
mo ng mabilis..so iyon lang sana makatulong din yan sa inyo...

thanks...
[ Tab from: http://www.guitaretab.com/k/kitchie-nadal/54091.html ]
i also write the lyrics and chords bale pakingan nyo din standard tuning yan pati yng
tab....kung mapapakingan nyong mabuti, may (Em) pa syang tipa after ng (G) pero diko na
nilagay kasi sa tingin ko sa bass guitar na yun pero its up to you guys kung gusto nyo 
isasama nyo yng (Em) bale magagamit mo sya simula intro hangang sa mga verse ng
pero pagdating dun sa last (G) dun sa malapit na mag chorus wala na yng (Em)deretso ka 
sa chords ng Chorus..so yn lang pasenya na kayo this is my 1st time na isulat yng mga 
kung kanta sa internet...so hope na makatulong sa inyo yan..

................................

Same Ground

Intro: A-G (2x)

A                     G
 My love, it's been a long time since I cried
              A              G
 And left you out of the blue
A                  G
 It's hard leaving you that way
                      A-G
 When I never wanted to


 A                G
 Self-denial is a game a stranger
                             A             G
 Never would have wanted 'til there was you


            A
'Coz I have learned that love is beyond
 what human can imagine
 G                                       A-G
 More it clears the more I gotta let you go


CHORUS:

A                        E
 'Coz what I don't understand
                       F#m
 Is why I'm feeling so bad now
        D
 When I know it was my idea
A                                        E
 I could have just denied the truth and lied
                  F#
 Now why am I the only one standing
 G                       A   G-A-G
 Stranded on the same ground


 My love, it's been a long time since I cried
 And left you out of the blue
 It's hard leaving you that way
 When I never wanted to

 Self-denial is a game a stranger
 Never would have wanted 'til there was you

             A
 'Coz I have learned the love is a word
                            G
 Just gone a little bit too much
 of this excuse to fill this infinite
A                                   G
 Of desire and never ever have to fade

 (Chorus)
 Adlib: A - G (2x)
 (Chorus)

    A              G
 If all else fail, would you be there
    A       G
 To love me
      A              G
 When all else fail, would you be brave
    A                    G-A
 To see right through me.


thanks...
if you have comments and suggestion
E-mail me at Darksoul_revenge@yahoo.com


Same Ground Chords by Kitchie Nadal,

Intro: A-G (2x)

A                     G
 My love, it's been a long time since I cried
              A              G
 And left you out of the blue
A                  G
 It's hard leaving you that way
                      A-G
 When I never wanted to


 A                G
 Self-denial is a game a stranger
                             A             G
 Never would have wanted 'til there was you


            A
'Coz I have learned that love is beyond
 what human can imagine
 G                                       A-G
 More it clears the more I gotta let you go


CHORUS:

A                        E
 'Coz what I don't understand
                       F#m
 Is why I'm feeling so bad now
        D
 When I know it was my idea
A                                        E
 I could have just denied the truth and lied
                  F#
 Now why am I the only one standing
 G                       A   G-A-G
 Stranded on the same ground


 My love, it's been a long time since I cried
 And left you out of the blue
 It's hard leaving you that way
 When I never wanted to

 Self-denial is a game a stranger
 Never would have wanted 'til there was you

             A
 'Coz I have learned the love is a word
                            G
 Just gone a little bit too much
 of this excuse to fill this infinite
A                                   G
 Of desire and never ever have to fade

 (Chorus)
 Adlib: A - G (2x)
 (Chorus)

    A              G
 If all else fail, would you be there
    A       G
 To love me
      A              G
 When all else fail, would you be brave
    A                    G-A
 To see right through me.
Related for Same Ground tab
×
Same Ground