Song name
# A B C D E F G H I J K L M N O P Q R S T U V W X Y Z

Kittie - Safe tab

safe by kittie
tabbed by rebecca
tuning low to high c g c f a d (drop c)

not sure about all of but sounds good except for first part


|-------------------------------------|
|-------------------------------------|
|-------------------------------------|
|-------------------------------------|
|-------------------------------------|
|-?-?-?-2-2-0-1-----------------------|

"this golden bird flies free ... "

|-------------------------------------|
|-------------------------------------|
|-------------------------------------|
|-------------------------------------|
|--5--6-6--5----13--15p12-------------|
|-------------------------------------|

"save me"
|--------------------------------------------|
|--------------------------------------------|
|--------------------------------------------|
|-1-1-1-1-1-1-1-1-0-0-0-0-0-8-8-8-8-10-8-7---|
|-1-1-1-1-1-1-1-1-0-0-0-0-0-8-8-8-8-10-8-7---|
|-1-1-1-1-1-1-1-1-0-0-0-0-0-8-8-8-8-10-8-7---|

|--------------------------------------------|
|--------------------------------------------|
|--------------------------------------------|
|-1-1-1-0-0-0-8-8-8-7-7-7--------------------|
|-1-1-1-0-0-0-8-8-8-7-7-7--------------------|
|-1-1-1-0-0-0-8-8-8-7-7-7--------------------|

|--------------------------------------------|
|--------------------------------------------|
|--------------------------------------------|
|-1-0-8-7------------------------------------|
|-1-0-8-7------------------------------------|
|-1-0-8-7------------------------------------|

ummmm im really sure the first section is wrong, actually i KNOW it is
but the rest is RIGHT
Tap to rate this tab
 
# A B C D E F G H I J K L M N O P Q R S T U V W X Y Z