Song name
# A B C D E F G H I J K L M N O P Q R S T U V W X Y Z

Kk - Yaaron tab

This is the basic lead of the song. It's pretty easy to play, even the first time!


Slide= /
        eg.- 7/9 means slide from 7 to 9


E -----------1--------------| -------------1--------------|
B ---1-----3---3-1----------| -------1---3---3-1----------|
G -2---3-3---------2-3-2-0--| ---0-2---3---------2-3-2-0--|
D --------------------------| -3--------------------------|
A --------------------------| ----------------------------|
E --------------------------| ----------------------------|

REPEAT THE ABOVE PART TWICE.


E --------------------| ---------------------|
B --------------------| ---------------------|
G ---0-0-2-2-0--------| ---0-2-2-0-----------|
D -3-----------3/5-3--| -3----------3/5-3-3--|
A --------------------| ---------------------|
E --------------------| ---------------------|


E -1-0---0--| -0--------| ----------| ----------| ----------|
B -----3----| ---3-1-3--| -1-----1--| ----------| -------1--|
G ----------| ----------| ---3-2----| -2-0-0-2--| -2-0------|
D ----------| ----------| ----------| ----------| -----3----|
A ----------| ----------| ----------| ----------| ----------|
E ----------| ----------| ----------| ----------| ----------|

REPEAT THE FIRST PART, THE OPENING PART.



This is pretty much what I made of the song. It works for me, hope it does for you too. Cheers!
Tap to rate this tab
# A B C D E F G H I J K L M N O P Q R S T U V W X Y Z