Song name
# A B C D E F G H I J K L M N O P Q R S T U V W X Y Z

Klank - Fall tab

band: klank
song: fall

tabber: John Cukras
email: riffreaper@yahoo.com

tuning: normal

Riff 1:
E---------------------------------------------|
B---------------------------------------------|
G---------------------------------------------|
D------------------------------------22-------|
A-8-8/6-8/6-8-8/6-8/6-8-8/6-8/6-4-44-22-------|
E-6-6/4-6/4-6-6/4-6/4-6-6/4-6/4-2-22-00 x's 2-|

Riff 2:
E------------------------------------------------------------------------------|
B------------------------------------------------------------------------------|
G------------------------------------------------------------------------------|
D------------------------------------------------------------------------------|
A-15-13-12--4-3---5-4-3---5-4-3---5-4-3-6--------4-3---5-4-3---5-4-3---5-4-3-6-|
E-----------2-1-0-3-2-1-0-3-2-1-0-3-2-1-4 x's 4--2-1-0-3-2-1-0-3-2-1-0-3-2-1-4-|
pm              .       .       .                    .       .       .

Riff 1

Riff 2

Riff 1

Riff 3:                 A                                                     B
E-------------------------------------------------------------|----------------------------------------|
B-------------------------------------------------------------|----------------------------------------|
G-------------------------------------------------------------|----------------------------------------|
D--------------------------------------------------2222-------|----------------------------------------|
A-101010--8-8/6-8/6-3-8-8/6-8/6-3-8-8/6-8/6-3-4444-2222-------|--8-7-6-8-8/6-8-7-6-8-8/6-8/6/10--------|
E-88888---6-6/4-6/4-1-6-6/4-6/4-1-6-6/4-6/4-1-2222-0000 x's 2-|--6-5-4-6-6/4-6-5-4-6-6/4-6/4/8- x's 4--|

Riff 2

Riff 1 x's 4

Riff 3: B
Tap to rate this tab
# A B C D E F G H I J K L M N O P Q R S T U V W X Y Z