Song name
# A B C D E F G H I J K L M N O P Q R S T U V W X Y Z

Klaus Badelt - The Medallion Calls tab

rechter hand
     Q    Q    Q       Q.     E  Q       Q    Q    Q       Q    Q    Q     
E||-----------------|-----------------|-----------------|-----------------|
B||-----------------|-----------------|-----------------|-----------------|
G||-----------------|---------0--2----|--0--------------|-------0----2----|
D||-------0----2----|--3------2--3----|--2----3----2----|--3---------3----|
A||------------0----|--5--------------|--3----0---------|--0----3---------|
E||-------1---------|-----------------|------------3----|-----------------|


  Q.     E  E  E     Q.     E  Q       Q    Q    Q       Q.     E  Q     
------------------|-----------------|-----------------|-----------------|
------------------|-----------------|-----------------|-----------------|
--0------------0--|--2------0-------|-----------------|-----------------|
--2---------3-----|--3------0--0----|--2----3----2----|--0------2-------|
--3---------0--3--|--3------2--8----|--4----5----3----|--0------3--3----|
------------------|------------7----|--5----5----5----|--1------3--3----|


  S S E  E  E  E  E     S S E  E  S S E  E     Q.     E  Q     
---------------------|-------------------0--|--1------0--1----|
---------------------|----------------3-----|--3---------3----|
---------------------|------------2-2----0--|---------2-------|
--0-0-0--------------|----------------3--2--|--3------2--3----|
--0-0-0-----3--0-----|--0-0-0---------5-----|-----------------|
------------3--1-----|--1-1-1---------------|-----------------|


  Q    Q    Q       Q.     E  Q       H        E  E     Q    Q    Q     
--3----1----3----|--5------3--1----|--------------0--|--1----3----5----|
--1---------5----|--6------5--1----|--3--------3--2--|--3----5---------|
--0----2----5----|--5------5--2----|--4--------4--2--|--2----4----7----|
-------3----5----|--7------5--3----|--3--------3--2--|--3----5----7----|
-----------------|-----------------|--5--------5-----|-----------------|
-----------------|-----------------|-----------------|-----------------|


  Q    Q.     E     Q.     E  Q       Q.     E  E  E     H.            
--7-----------3--|--1------3--0----|------------------|---------------|
--8----0------0--|---------5--2----|------------------|---------------|
--9----7------0--|--2------2--2----|--2------2--------|---------------|
--9----0---------|--3---------2----|--3---------3--2--|--0------------|
-----------------|-----------------|--5------0--5--4--|--0------------|
-----------------|-----------------|------------5--5--|--1------------|


                                                  H        E  E   
---------------|---------------|---------------|--------------0--|
---------------|---------------|---------------|-----------3-----|
---------------|---------------|---------------|-----------------|
---------------|---------------|---------------|-----------------|
---------------|---------------|---------------|-----------------|
---------------|---------------|---------------|-----------------|


  Q.     E  Q       Q    Q    Q       Q.     E  Q       Q    Q    Q     
--1------0-------|-------1---------|-----------------|-----------------|
------------3----|--1--------------|-----------------|-----------------|
-----------------|------------2----|--0---------0----|-----------------|
-----------------|-----------------|---------3-------|--7--------------|
-----------------|-----------------|-----------------|--0--------------|
-----------------|-----------------|-----------------|--8----7----8----|


  E  S S E  E  E  E     E  S S E  E  E  E     E  S S E  E  E  E   
---------------------|---------------------|---------------------|
---------------------|---------------------|---------------------|
---------------------|---------------------|------------------0--|
--0------0--2--3-----|--0----3-2-----0-----|--0------0--2--3-----|
--0----3-------------|--0---------3-----3--|--0----3-------------|
--1---------------1--|--1---------------3--|--1------------------|


  E  E  E  E  E  E     E  S S E  E  E  E     E  S S E  E  E  E   
--------------------|---------------------|---------------------|
--------------------|---------------------|---------------------|
--2-----------------|---------------------|---------------------|
--------2-----------|--0------0--2--3-----|--0----3-2-----0-----|
--------------3-----|--0----3-------------|--0---------3-----3--|
--------------------|--1---------------1--|--1---------------3--|


  E  S S E  E  E  E     E  E  E  E  E  E  E  E     Q.     E  Q     
---------------------|-----------------------0--|--1------3--5----|
---------------------|--------0-----2-----3--0--|--3------3--3----|
------------------0--|--2-----0-----0-----2-----|---------0--2----|
--0------0--2--3-----|--2-----2-----2-----0--2--|--3--------------|
--0----3-------------|--3--------2-----3--------|-----------------|
--1------------------|--------------------------|-----------------|


  Q    Q    Q       Q    Q    Q       H        E  E     Q    Q    Q    Q     
--3----1----0----|--1----3----5----|--0-----------0--|--5----3--------------|
--5----1----1----|--1----1----6----|--8--------6--8--|--6----3----3----2----|
--0--------------|-------0---------|--0-----------0--|--5----4----2----0----|
-------3----2----|--3---------7----|-----------------|--7----5----3----2----|
-----------------|-----------------|-----------8-----|------------5----4----|
-----------------|-----------------|-----------------|----------------------|


  Q    Q    Q    Q       Q    Q    Q    Q       Q    Q    Q    Q     
----------------------|----------------------|----------------------|
----------------------|----------------------|----------------------|
----------------------|----------------------|----------------------|
-------0---------0----|-------0---------2----|-------0---------0----|
-------0---------0----|-----------------0----|-------2---------0----|
-------1--------------|-------3--------------|-------1---------1----|


  H        Q    Q       H        Q    Q              
---------------------|---------------------|-------||
---------------------|---------------------|-------||
---------------------|---------------------|-------||
---------------------|----------------0----|-------||
----------------3----|----------------0----|-------||
----------------3----|----------------1----|-------||
Tap to rate this tab
 
# A B C D E F G H I J K L M N O P Q R S T U V W X Y Z