Song name
# A B C D E F G H I J K L M N O P Q R S T U V W X Y Z

Klaus Nomi - Total Eclipse tab

Highlighted       Show chord diagrams
Total Eclipse
Klaus Nomi

[there's no official site, but here's the wikipedia entry
http://en.wikipedia.org/wiki/Klaus_Nomi]


     Dm
e|-5---------|-------------|-5-----------|--------------|
b|-6---------|-------------|-6-----------|--------------|
g|-7---------|-------------|-7-----------|--------------|
d|-7---------|-------------|-7-----------|--------------|
a|-5---------|-------5-3-2-|-5-----------|--------2-3-5-|
e|-----------|-------------|-------------|--------------|

e|-5---------|-------------|-5-----------|----------------|
b|-6---------|-------------|-6-----------|----------------|
g|-7---------|-------------|-7-----------|-------4---5---7|
d|-7---------|-------------|-7-----------|---7------------|
a|-5---------|-------5-3-2-|-5-----------|-----2---3---5--|
e|-----------|-------------|-------------|-5--------------|
                       
                                    
 Dm                          A
 Big shots, argue about what they've got
                   Gm                   Dm
 making the planet so hot, hot as a holocaust
 F                           C
 Blow up, everything's gonna go up,
                   Bb                         A
 even if you don't show up, in your Chemise Lacoste.

[CHORUS] 
 Dm                    Gm
 Total eclipse, it's a total eclipse
        C                        F
 it's a total eclipse of the sun.
 Dm                           Gm
 Can't come to grips with the total eclipse
        C                               intro
 just a slip of your lips and your done.


 Dm                      A
 Far out, nobody left to crawl out
                        Gm                           Dm
 if someone calls we're all out, turning into french fries
 F                           C
 Last chance, let the entire cast dance
                    Bb                     A
 do the dismembered blast dance, as we get atomized

[CHORUS] 
 Total eclipse, it's a total eclipse
 it's a total eclipse of the sun.
 Can't come to grips with the total eclipse
 just a slip of your lips and your done. 
[play intro riff and repeat chorus]



Tap to rate this tab
# A B C D E F G H I J K L M N O P Q R S T U V W X Y Z