Song name
# A B C D E F G H I J K L M N O P Q R S T U V W X Y Z

Kmfdm - Blitzkrieg tab

KMFDM - Blitzkrieg
Tabbed by Nick Moreau

Note: Yes, I know it is an Excessive Force song, but I'm tabbing out the live 
KMFDM version from the $$ Tour in 1992.

e|-------------------------------|
b|-------------------------------|
g|--------------------------0h2--|
d|-----------------------5--0h2--|
a|-----------------------5-------|
e|--0-0-0-0-3p2p0-3p2p0----------|
 PM--------------------|

e|--------------------------|
b|--------------------------|
g|--------------------------|
d|-------------------4p2h4--|
a|-------------------4p2h4--|
e|--2-2-2-2-2-2-2-2---------|
 PM----------------|

Lyrics:
Leather clad warrior
Fight intollerant fools
Mutalation of values
Where the ignorant rule

Desire is stronger
Than the means of vexation
Virtual blitzkrieg
Conquering nations
Totalitarian systems
Their backs to the wall
Yugoslavia bleeding
Who predicted the fall?

Time will be ending
Life’s a crusade
For a consciousness rising
Out of desperate state
Into light and the future
Education is work
Into violent peace
That will conquer the world
Blitzkrieg

Time will be ending
Life’s a crusade
For a consciousness rising
Out of desperate state
Into light and the future
Education is work
Into violent peace
That will conquer the world

Into light and the future
Education is work
Into violent peace
That will conquer the world
Blitzkrieg!
Tap to rate this tab
# A B C D E F G H I J K L M N O P Q R S T U V W X Y Z