Guitaretab - guitar tabs
Song name
# A B C D E F G H I J K L M N O P Q R S T U V W X Y Z

Knack - My Sharona tab

                        Title: My Sharona
                          Artist: The Knack
                                Ben
      I cant take all the credit for this my guitar teacher helped


-------------------------------------------------------------------------------
			 My Sharona - The Knack


-------------------------------------------------------------------------------

Tuning: standard

e |--------------------------|
B |-----5-5-5-----3----------|
G |-----5-5-5-----3----------|
D |-----5-5-5-----3----------|
A |--------------------------|
E |--------------------------|


Intro//Verse
e|---------------------------------------------------------------------------|
B|-----------------------------------------5-5-5----3------------------------|
G|-----------------------------------------5-5-5----3------------------------|X3
D|-----55---5----5----5--------55----5-----5-5-5----3------------------------|
A|---------------------------------------------------------------------------|
E|-2s33---3----3---33-----2s33-----3-----------------------------------------|

Chorus
e|---------------------------------------------------------------------------|
B|---------------------------------------------------------------------------|
G|-------------3----------5-5------8-8------10-------------------------------|
D|--5----------3--X16-----5-5------8-8------10-------------------------------|
A|--5--X16-----1----------3-3------6-6------8--------------------------------|
E|--3------------------------------------------------------------------------|

  Verse
e|---------------------------------------------------------------------------|
B|-----------------------------------------5-5-5----3------------------------|
G|-----------------------------------------5-5-5----3------------------------|X3
D|-----55---5----5----5--------55----5-----5-5-5----3------------------------|
A|---------------------------------------------------------------------------|
E|-2s33---3----3---33-----2s33-----3-----------------------------------------|

Chorus
e|---------------------------------------------------------------------------|
B|---------------------------------------------------------------------------|
G|-------------3----------5-5------8-8------10-------------------------------|
D|--5----------3--X16-----5-5------8-8------10-------------------------------|
A|--5--X16-----1----------3-3------6-6------8--------------------------------|
E|--3------------------------------------------------------------------------|

Verse
e|---------------------------------------------------------------------------|
B|-----------------------------------------5-5-5----3------------------------|
G|-----------------------------------------5-5-5----3------------------------|
D|-----55---5----5----5--------55----5-----5-5-5----3------------------------|
A|---------------------------------------------------------------------------|
E|-2s33---3----3---33-----2s33-----3-----------------------------------------|

  Solo one
e|---5--5----8-8-------------------------------------------------------------|
B|---6--5----8-8-------10--8--10---------------------------------------------|
G|---5--5---10-8-------10--8--10---------------------------------------------|
D|---5--5----8-8-------10--8--10---------------------------------------------|
A|---3--3----6-6-------8---6--8-----------------3-3-3-3~~--1---1-------------|
E|---------------------------------------1-1-1---------------3---3-----------|

e|---------------------------------------------------------------------------|
B|---------------------------------------------------------------------------|
G|----same-chords-as-above-then...---------------------------3~--------------|
D|-----------------------------------------------------5p3------5------------|
A|---------------------------------------------------------5~----------------|
E|-------------------------------------1-1-1-1-1-1-3~~-----------------------|


|
[ Tab from: http://www.guitaretab.com/k/knack/9903.html ]
e|--------------------------------6------------------------------------------|
B|--------------------------------6~~-6~-6~-6~-6~-----3h6--------------------|
G|-same-chords-as-above-then....--------------------------3------------------|
D|----------------------------------------------------------5----------------|
A|---------------------------------------------------------------------------|
E|---------------------------------------------------------------------------|

e|---------------------------------------8-----8---8---8---------------------|
B|-------------------------------------8~---8~---8~--8~--8~------------------|
G|--same-chords-as-above-then....--------------------------------------------|
D|---------------------------------------------------------------------------|
A|---------------------------------------------------------------------------|
E|---------------------------------------------------------------------------|


Note: for the solo one the last 2 with all the bends, for the first one bend 6 hard and 
it up there till the last six and bend it back down its hard to explain but listen how 
plays he does not keep bending it he leaves it there

and the same thing for the 8 on the last one

Verse
e|---------------------------------------------------------------------------|
B|-----------------------------------------5-5-5----3------------------------|
G|-----------------------------------------5-5-5----3------------------------|
D|-----55---5----5----5--------55----5-----5-5-5----3------------------------|X4
A|---------------------------------------------------------------------------|
E|-2s33---3----3---33-----2s33-----3-----------------------------------------|

Chorus
e|---------------------------------------------------------------------------|
B|---------------------------------------------------------------------------|
G|-------------3----------5-5------8-8------10-------------------------------|
D|--5----------3--X16-----5-5------8-8------10-------------------------------|
A|--5--X16-----1----------3-3------6-6------8--------------------------------|
E|--3------------------------------------------------------------------------|

e|---------------------------------------------------------------------------|
B|---------------------------------------------------------------------------|
G|--------------------------5--5-------8--8------10--------------------------|X2
D|-----55---5----5----5-----5--5-------8--8------10--------------------------|
A|--------------------------3--3-------6--6-------8--------------------------|
E|-2s33---3----3---33--------------------------------------------------------|


e|---------------------------------------------------------------------------|
B|---------------------------------------------------------------------------|
G|---------------------------------------------------------------------------|
D|-----55---5----5----5--------55----5---------------------------------------|x3
A|---------------------------------------------------------------------------|
E|-2s33---3----3---33-----2s33-----3-----------------------------------------|

 Pre- Solo
e|---------------------------------------------------------------------------|
B|----------------6--6------5--5---------------------------------------------|
G|----9-----7-7---5--5------5--5----7----------------------------------------|
D|----10----9-9---7--7------7--7----9----------------------------------------|X2
A|---------------------------------------------------------------------------|
E|---------------------------------------------------------------------------|


 and that is it except for the solo which is played differently than the other solo and 
sounds better but its way to long to tab for me cause i have been working on this for 
so take the other one.

| /  slide up
| \  slide down
| h  hammer-on
| p  pull-off
| ~  vibrato
| +  harmonic
| x  Mute note
==============================================================================
Related for My Sharona tab
Advertisement will be closed in 10 seconds