Song name
# A B C D E F G H I J K L M N O P Q R S T U V W X Y Z

Knockout - Breakaway tab

Knockout - Breakaway

this is my first tab evry1,so be nice!

intro
e-4-44-4-44-2h3-2h30-2h3-2h30--(-44-4-44-4h5-4h52-4h5-4h5)-00000-0-0-
b------------------------------(-------------------------)-----------
g------------------------------(-------------------------)-----------
d------------------------------(-------------------------)-----------
a------------------------------(-------------------------)-----------
e------------------------------(-------------------------)-----------

verse
e----------------------------------------0-0-024-5-5-555------------------------
b-------------------------------------------------------------------------------
g-------------------------------------------------------------------------------
d---5-----7------5-5-555-7-7-777-7-7-777--7-------------5-5-555-7-7-777-7-7-777-
a---5(x12)7(x12)-5-5-555-7-7-777-7-7-777--7(x12)--------5-5-555-7-7-777-7-7-777-
e---3-----5------3-3-333-5-5-555-5-5-555--5-------------3-3-333-7-7-777-7-7-777-

chorus
e-----------------------------
b----------------------------
g-----------------------------
d-7-----9-----------------------
a-7(x12)9-----------------------
e-5-----7-----------------------
Tap to rate this tab
# A B C D E F G H I J K L M N O P Q R S T U V W X Y Z