Song name
# A B C D E F G H I J K L M N O P Q R S T U V W X Y Z

Knorrig - Headache tab

kNoRRiG- Headache

Verses

E------------------------------------------
B------------------------------------------
G---5-----------5--------------------------
D---5-----3-----5----3-------5--5--5-------
A---3-----3-----3----3-------5--5--5-------
E---------1----------1-------3--3--3-------

Chorus

E----------------------------------------------
B----------------------------------------------
G----------------------------------------------
D---3---3----5--5--5----3--3--5----------------
A---3---3----5--5--5----3--3--5----------------
E---1---1----3--3--3----1--1--3----------------
Tap to rate this tab
# A B C D E F G H I J K L M N O P Q R S T U V W X Y Z